Oops, an error
Loading. Please wait.

Therapy Chords

version 3
version 3
38,137 views 324 this week
no commentswrite comment
1 2 3 4 5
accurate
x 8
add to favorites
launch autoscroll
font size
0
reset
transpose
0
reset
simplify chords
display chords
guitar tuner
Tab Pro tools
  • play this tab
  • loop segment
  • change instrument
  • show fretboard
  • metronome
×
Best way to learn
"Therapy"
Autoscroll
slow
fast
+/-
esc
set tempo
stop
Contributor
All time Low - Therapy
Standard Tuning

Amaj7       F#m
e|-0----------2--|
B|-2----------2--|
G|-1----------2--|
D|-2----------4--|
A|-0----------4--|
E|-0----------2--|


[Intro Riff]

e|--------------------------------------------------------------------------|
B|---2h3-2---2-------2h3-2---2------2----2-------2h3-2----2-----------------|
G|--2------2---2----2------2---2---2-2--2-2-----2-------2---2---------------|
D|----------------0---------------------------0-----------------------------|
A|-0------------------------------------------------------------------------|
E|--------------------------------2----0------------------------------------|


[Verse]

    A                  Amaj7
My ship went down in a sea of sound.
       F#m                 D
When I woke up alone I had everything.
    A                       Amaj7
A handful of moments I wish I could change.
        F#m                         D
And a tongue locking nightmare that cut like a blade
       A                 Amaj7          
In a city of fools I was careful and cool 
         F#m                  D
but they tore me apart like a hurricane.
    A                       Amaj7              F#m             D
A handful of moments I wish I could change but I was carried away


[Chorus]

        A
Give me therapy
      E             F#m
I'm a walking travesty
         D
But I'm smiling at everything
A                 E                 F#m
Therapy, you were never a friend to me
             D
And you can keep all your misery.


[Instrumental]

(Play Riff)

e|--------------------------------------------------------------------------|
B|---2h3-2---2-------2h3-2---2------2----2-------2h3-2----2-----------------|
G|--2------2---2----2------2---2---2-2--2-2-----2-------2---2---------------|
D|----------------0---------------------------0-----------------------------|
A|-0------------------------------------------------------------------------|
E|--------------------------------2----0------------------------------------|


[Verse]

     A                              
My lungs gave out
      Amaj7                             
As i faced the crowd
                F#m                   D
I think that keeping this up could be dangerous
      A                            
I'm flesh and bone
        Amaj7                           
I'm a rolling stone
     F#m                   D           
and the experts say I'm delirious


[Chorus]

        A
Give me therapy
      E             F#m
I'm a walking travesty
         D
But I'm smiling at everything
A                 E                 F#m
Therapy, you were never a friend to me
             D
And you can keep all your misery


[Bridge]

A                      E
Arrogant boy, love yourself so no one has to
        F#m
They're better off without you
         D
(They're better off without you)

A                     E
Arrogant boy, cause a scene like you're supposed to
        F#m
They'll fall asleep without you
        D
You're lucky if your memory remains


[Chorus]

        A
Give me therapy
      E             F#m
I'm a walking travesty
         D
But I'm smiling at everything
A                 E                 F#m
Therapy, you were never a friend to me
             D
And you can keep all your misery.

        A
Give me therapy
      E             F#m
I'm a walking travesty
         D
But I'm smiling at everything
A                 E                 F#m
Therapy, you were never a friend to me
             D
And you can keep all your misery.


********************
|h      Hammer-on
********************
comments
print report bad tab
I want to post or [tab]
guest
You may want to rate the tab now too:
select rating
Please do not post tabs as comments. Select "correction" instead!