Oops, an error
Loading. Please wait.

Therapy Tab

version 3
version 3

Whole song

Interactive

16,979 views 12 this week
5 commentsread comments
1 2 3 4 5
excellent!
x 6
add to favorites
launch autoscroll
font size
0
reset
how to read this tab
guitar tuner
Autoscroll
slow
fast
+/-
esc
set tempo
stop
Help us to improve Ultimate-Guitar.com Take our survey!
×
Author
Difficulty
Tuning
novice
D# G# C# F# A# D#
-------------------------------------------------------------------------------
                             Therapy - All Time Low
-------------------------------------------------------------------------------
Tabbed by: bosshog11
Email: iplayguitar72@yahoo.com

Please note, this is how Alex plays it live on the Straight to DVD album. Also, I 
tried to make the rhythms as correct as possible, if you have a better one please correct me.

Tuning: Eb Ab Db Gb Bb eb

Intro/Verse 1:
e|------------------------------------------------------|
B|---------2h3p2-----------------------2h3p2------------|
G|------2-----------2-4-2-----------2-----------2-4-2---|
D|-------------------------------0----------------------|\
A|---0--------------------------------------------------| \
E|------------------------------------------------------|  \
                                                            (4x)
e|------------------------------------------------------|  /
B|-------2---------2-------------------2h3p2------------| /
G|-----2---2-----2---2--------------2-----------2-4-2---|/
D|-------------------------------0----------------------|
A|------------------------------------------------------|
E|---2---------0----------------------------------------|

e|------------------------------------------------------|
B|---------2h3p2-----------------------2h3p2------------|
G|------2-----------2-4-2-----------2-----------2-4-2---|
D|-------------------------------0----------------------|
A|---0--------------------------------------------------|
E|------------------------------------------------------|

e|-------------------------|
B|-------2-------2---------|
G|-----2-------2-----2-----|
D|---------------------0---|
A|-------------------------|
E|---2-------0-------------|

Chorus 1:                                                 1.------------------ 2.--------
e|---0--0-00-00-0--00-0--0-00-00-0--00-2--2-22-22-2--22-2--2-22-22-2--22---|---2~~---|
B|O--2--2-22-22-2--22-0--0-00-00-0--00-2--2-22-22-2--22-3--3-33-33-3--33--O|---3~~---|
G|---2--2-22-22-2--22-1--1-11-11-1--11-2--2-22-22-2--22-2--2-22-22-2--22---|---2~~---|
D|---2--2-22-22-2--22-2--2-22-22-2--22-4--4-44-44-4--44-0--0-00-00-0--00---|---0~~---|
A|O--0--0-00-00-0--00-2--2-22-22-2--22-4--4-44-44-4--44-------------------O|---------|
E|--------------------0--0-00-00-0--00-2--2-22-22-2--22--------------------|---------|


Verse 2:
e|----------------------------------------------------|
B|---------2h3p2-----------------------2h3p2----------|
G|------2-----------2-4-2-----------2---------2-4-2---|
D|-------------------------------0--------------------|
A|---0------------------------------------------------|
E|----------------------------------------------------|

e|-----------------------------0---|
B|-------2---------2---------2-----|
G|-----2---2-----2---2-----2-------|
D|-----------------------0---------|
A|---------------------------------|
E|---2---------0-------------------|                    1.--------------- 2.-------
                                                        |                 |
e|-----------------------------------------------------------------------|---------|
B|O---------------------------------------------------------------------O|---------|
G|------------------7-7-7-77-7-77--11-11-11-11--9-9-9-9--7-7-7-77-7-77---|---7~~---|
D|---7-7-7-77-7-77--7-7-7-77-7-77--11-11-11-11--9-9-9-9--7-7-7-77-7-77---|---7~~---|
A|O--7-7-7-77-7-77--5-5-5-55-5-55--9--9--9--9---7-7-7-7--5-5-5-55-5-55--O|---5~~---|
E|---5-5-5-55-5-55-------------------------------------------------------|---------|
  Pm ---   -  -     ---   -  -     -----    --  ---   -  ---   -  -

Chorus 2:
e|---0--0-00-00-0--00-0--0-00-00-0--00-2--2-22-22-2--22-2--2-22-22-2--22---|
B|---2--2-22-22-2--22-0--0-00-00-0--00-2--2-22-22-2--22-3--3-33-33-3--33---|
G|---2--2-22-22-2--22-1--1-11-11-1--11-2--2-22-22-2--22-2--2-22-22-2--22---| (2x)
D|---2--2-22-22-2--22-2--2-22-22-2--22-4--4-44-44-4--44-0--0-00-00-0--00---|
A|---0--0-00-00-0--00-2--2-22-22-2--22-4--4-44-44-4--44--------------------|
E|--------------------0--0-00-00-0--00-2--2-22-22-2--22--------------------|


Bridge:
e|---2--2-22-22-2--22-0--0-00-00-0--00-0--0-00-00-0--00-0--0-00-00-0--00---|
B|---3--3-33-33-3--33-2--2-22-22-2--22-0--0-00-00-0--00-0--0-00-00-0--00---|
G|---4--4-44-44-4--44-2--2-22-22-2--22-1--1-11-11-1--11-2--2-21-11-1--11---|
D|---4--4-44-44-4--44-2--2-22-22-2--22-2--2-22-22-2--22-2--2-22-22-2--22---|
A|---2--2-22-22-2--22-0--0-00-00-0--00-2--2-22-22-2--22-2--2-22-22-2--22---|
E|-------------------------------------0--0-00-00-0--00-0--0-00-00-0--00---|

e|---2--2-22-22-2--22-0~~--0~~--2~~-0~~-2~~-|
B|---3--3-33-33-3--33-2~~--0~~--2~~-0~~-3~~-|
G|---4--4-44-44-4--44-2~~--1~~--2~~-1~~-2~~-|
D|---4--4-44-44-4--44-2~~--2~~--4~~-2~~-0~~-|
A|---2--2-22-22-2--22-0~~--2~~--4~~-2~~-----|
E|-------------------------0~~--2~~-0~~-----|


Chorus 3:
e|---0--0-00-00-0--00-0--0-00-00-0--00-2--2-22-22-2--22-2--2-22-22-2--22---|
B|---2--2-22-22-2--22-0--0-00-00-0--00-2--2-22-22-2--22-3--3-33-33-3--33---|
G|---2--2-22-22-2--22-1--1-11-11-1--11-2--2-22-22-2--22-2--2-22-22-2--22---| (3x)
D|---2--2-22-22-2--22-2--2-22-22-2--22-4--4-44-44-4--44-0--0-00-00-0--00---|
A|---0--0-00-00-0--00-2--2-22-22-2--22-4--4-44-44-4--44--------------------|
E|--------------------0--0-00-00-0--00-2--2-22-22-2--22--------------------|

e|---0--0-00-00-0--00-0~~------2~~------2~~---|
B|---2--2-22-22-2--22-0~~------2~~------3~~---|
G|---2--2-22-22-2--22-1~~------2~~------2~~---|
D|---2--2-22-22-2--22-2~~------4~~------0~~---|
A|---0--0-00-00-0--00-2~~------4~~------------|
E|--------------------0~~------2~~------------|


Outro:
e|----------------------------------------------------|
B|---------2h3p2-----------------------2h3p2----------|
G|------2-----------2-4-2-----------2---------2-4-2---|
D|-------------------------------0--------------------|
A|---0------------------------------------------------|
E|----------------------------------------------------|

e|-----------------------------0---|
B|-------2---------2---------2-----|
G|-----2---2-----2---2-----2-------|
D|-----------------------0---------|
A|---------------------------------|
E|---2---------0-------------------|

Hope you enjoy playing this great song.

************************************

| /   slide up
| \   slide down
| h   hammer-on
| p   pull-off
| ~   vibrato
| +   harmonic
| x   Mute note
| b   Bend
| pb  Pre-bend
| br  Bend release
| pbr Pre-bend release
| brb Bend release bend

************************************
Suggest correction
What's this?
You can suggest a correction to this tab. Community and Mods will review your correction and vote to approve or reject it.
comments
print report bad tab
5 comments total. Showing first comments.
+1 reply
jaxville_demon 12 wrote on October 16 2010, 04:23 pm

Really good :) Note perfect i think! Sounds exactly like the song!

0 reply
bosshog11 48 wrote on October 18 2010, 12:13 am

Thanks... it took a while to make sense of some of it...

0 reply
Xainlrd 11 wrote on April 1 2011, 02:51 am

Im still heavily confused haha, what does the 1.------------- and 2.--------- mean? repeat again and then go to 2 right? like : on a scale sheet?

guest
You may want to rate the tab now too:
select rating
Please do not post tabs as comments. Select "correction" instead!