Oops, an error
Loading. Please wait.

Therapy Chords

version 5
version 5

Whole song

Interactive

10,262 views 36 this week
no commentswrite comment
1 2 3 4 5
x 6
add to favorites
launch autoscroll
font size
0
reset
transpose
0
reset
display chords
guitar tuner
×
Best way to learn
"Therapy"
Autoscroll
slow
fast
+/-
esc
set tempo
stop
Difficulty
intermediate
Therapy by All Time Low
Tabbed by~ Maura

This goes through all the verses, but the chorus is different. 
e|-------------------------------------------------------|
B|----232---0------232---0-------2-----2-------232---0---|
G|--2-----2--2----2----2---2----2-2---2-2----2-----2---2-|
D|-------------0---------------------------0-------------|
A|-0-----------------------------------------------------|
E|----------------------------2------0-------------------|

[Verse 1]
My ship went down, in a sea of sound, when I woke up alone I had everything,
A handful of moments I wish I could change,
And a tongue like a nightmare that cut like a blade,
In a city of fools, I was careful and cool, but they tore me apart like a hurricane,
a handful of moments, I wish I could change, but I was carried away,

[Chorus]
         A              E              D           A
Give me, Therapy, I'm a walking travesty, but I'm smiling at everything,
A                 E                 D (strum once)A
Therapy, you were never a friend to me, you can keep all your misery

[Verse 2] (Back to tab)
My lungs gave out, as I faced the crowd, I think that keeping this up could be dangerous, 
I'm flesh and bone, I'm a rolling stone, and the experts say I'm delerious,
[Chorus]

[Bridge]
D                     A                               E
Arrogant boy, love yourself so no one has to, They're better off without 
                                       D                     A  
you, (They're better off without you), Arrogant boy, cause a scene like 
                            E
you're supposed to, they'll fall asleep without you, you're lucky if you 
        A
memory remains,

[Chorus]
         A              E              D           A
Give me, Therapy, I'm a walking travesty, but I'm smiling at everything,
A                 E                 D (strum once)A
Therapy, you were never a friend to me, you can keep all your misery

         A              E              D           A
Give me, Therapy, I'm a walking travesty, but I'm smiling at everything,
A                 E                     D (strum once)A
Therapy, you were never a friend to me, and you can choke on your misery

[Outro]
e|-------------------------------------------------------|
B|----232---0------232---0-------2-----2-------232---0---|
G|--2-----2--2----2----2---2----2-2---2-2----2-----2---2-|
D|-------------0---------------------------0-------------|
A|-0-----------------------------------------------------|
E|----------------------------2------0-------------------|
Suggest correction
comments
print report bad tab
guest
You may want to rate the tab now too:
select rating
Wanna post a correction for this tab? Suggest correction