Oops, an error
Loading. Please wait.
We have an official Therapy tab made by UG professional guitarists. Check out the tab »
×
4 views 1 this week
no commentswrite comment
1 2 3 4 5
3 more votes to show rating
add to favorites
×
Save as Personal and add changes to this tab that will be seen only by you. Learn more ›
×
You can save this tab as Personal to edit and correct it or add notes. All changes will be seen only by you. Learn more »
launch autoscroll
font size
0
reset
how to read this tab
guitar tuner
edit
Autoscroll
slow
fast
+/-
esc
set tempo
stop
About this tab version
Rhythm and lead guitar of the song. Was this info helpful? Yes No
[Intro]
(Clean)
E|----------------------------------------------------|
B|--------------2h-3h-2-----------------0-------------|
G|--------2-----------------------2-----------2-------|
D|----------------------------------------------------|
A|--0-------------------------------------------------|
E|----------------------------------------------------| x2
                            
E|----------------------------|
B|--------2-----------2-------|
G|-----2-----2-----2-----2----|
D|----------------------------|
A|----------------------------|
E|--2-----------0-------------|

E|----------------------------------------------------|
B|--------------2h-3h-2-----------------0-------------|
G|--------2-----------------------2-----------2-------|
D|----------------------------------------------------|
A|--0-------------------------------------------------|
E|----------------------------------------------------|


[Verse 1]   
(Clean)                                            
E|----------------------------------------------------|
B|--------------2h-3h-2-----------------0-------------|
G|--------2-----------------------2-----------2-------|
D|----------------------------------------------------|
A|--0-------------------------------------------------|
E|----------------------------------------------------| x2
                             
E|----------------------------|
B|--------2-----------2-------|
G|-----2-----2-----2-----2----|
D|----------------------------|
A|----------------------------|
E|--2-----------0-------------|
                                                     
E|----------------------------------------------------|
B|--------------2h-3h-2-----------------0-------------|
G|--------2-----------------------2-----------2-------|
D|----------------------------------------------------|
A|--0-------------------------------------------------|
E|----------------------------------------------------| x3
                             
E|----------------------------|
B|--------2-----------2-------|
G|-----2-----2-----2-----2----|
D|----------------------------|
A|----------------------------|
E|--2-----------0-------------|
                                                     
E|----------------------------------------------------|
B|--------------2h-3h-2-----------------0-------------|
G|--------2-----------------------2-----------2-------|
D|----------------------------------------------------|
A|--0-------------------------------------------------|
E|----------------------------------------------------| x3
                             
E|----------------------------|
B|--------2-----------2-------|
G|-----2-----2-----2-----2----|
D|----------------------------|
A|----------------------------|
E|--2-----------0-------------|
                                                     
E|----------------------------------------------------|
B|--------------2h-3h-2-----------------0-------------|
G|--------2-----------------------2-----------2-------|
D|----------------------------------------------------|
A|--0-------------------------------------------------|
E|----------------------------------------------------| x3
                                        
E|----------------------------|
B|--------2-----------2-------|
G|-----2-----2-----2-----2----|
D|----------------------------|
A|----------------------------|
E|--2-----------0-------------|


[Chorus]  
(Clean)    
E|--0-----------0-----0--0--0--0--0-----0-----0--0----|
B|--2-----------2-----2--2--2--2--2-----2-----2--2----|
G|--2-----------2-----2--2--2--2--2-----2-----2--2----|
D|--2-----------2-----2--2--2--2--2-----2-----2--2----|
A|--0-----------0-----0--0--0--0--0-----0-----0--0----|
E|----------------------------------------------------|

E|--0-----------0-----0--0--0--0--0-----0-----0--0----|
B|--0-----------0-----0--0--0--0--0-----0-----0--0----|
G|--1-----------1-----1--1--1--1--1-----1-----1--1----|
D|--2-----------2-----2--2--2--2--2-----2-----2--2----|
A|--2-----------2-----2--2--2--2--2-----2-----2--2----|
E|--0-----------0-----0--0--0--0--0-----0-----0--0----|
  
E|--2-----------2-----2--2--2--2--2-----2-----2--2----|
B|--2-----------2-----2--2--2--2--2-----2-----2--2----|
G|--2-----------2-----2--2--2--2--2-----2-----2--2----|
D|--4-----------4-----4--4--4--4--4-----4-----4--4----|
A|--4-----------4-----4--4--4--4--4-----4-----4--4----|
E|--2-----------2-----2--2--2--2--2-----2-----2--2----|

E|--2-----------2-----2--2--2--2--2-----2-----2--2----|
B|--3-----------3-----3--3--3--3--3-----3-----3--3----|
G|--2-----------2-----2--2--2--2--2-----2-----2--2----|
D|--0-----------0-----0--0--0--0--0-----0-----0--0----|
A|----------------------------------------------------|
E|----------------------------------------------------|

E|--0-----------0-----0--0--0--0--0-----0-----0--0----|
B|--2-----------2-----2--2--2--2--2-----2-----2--2----|
G|--2-----------2-----2--2--2--2--2-----2-----2--2----|
D|--2-----------2-----2--2--2--2--2-----2-----2--2----|
A|--0-----------0-----0--0--0--0--0-----0-----0--0----|
E|----------------------------------------------------|

E|--0-----------0-----0--0--0--0--0-----0-----0--0----|
B|--0-----------0-----0--0--0--0--0-----0-----0--0----|
G|--1-----------1-----1--1--1--1--1-----1-----1--1----|
D|--2-----------2-----2--2--2--2--2-----2-----2--2----|
A|--2-----------2-----2--2--2--2--2-----2-----2--2----|
E|--0-----------0-----0--0--0--0--0-----0-----0--0----|
  
E|--2-----------2-----2--2--2--2--2-----2-----2--2----|--2----|
B|--2-----------2-----2--2--2--2--2-----2-----2--2----|--3----|
G|--2-----------2-----2--2--2--2--2-----2-----2--2----|--2----|
D|--4-----------4-----4--4--4--4--4-----4-----4--4----|--0----|
A|--4-----------4-----4--4--4--4--4-----4-----4--4----|-------|
E|--2-----------2-----2--2--2--2--2-----2-----2--2----|-------|


[Post-Chorus] 
E|----------------------------------------------------|
B|--------------2h-3h-2-----------------0-------------|
G|--------2-----------------------2-----------2-------|
D|----------------------------------------------------|
A|--0-------------------------------------------------|
E|----------------------------------------------------| x2

E|----------------------------|
B|--------2-----------2-------|
G|-----2-----2-----2-----2----|
D|----------------------------|
A|----------------------------|
E|--2-----------0-------------|

E|----------------------------------------------------|
B|--------------2h-3h-2-----------------0-------------|
G|--------2-----------------------2-----------2-------|
D|----------------------------------------------------|
A|--0-------------------------------------------------|
E|----------------------------------------------------|

 
[Verse 2]                                                    
(Clean)                                                
E|----------------------------------------------------|
B|--------------2h-3h-2-----------------0-------------|
G|--------2-----------------------2-----------2-------|
D|----------------------------------------------------|
A|--0-------------------------------------------------|
E|----------------------------------------------------| x2
                             
E|----------------------------|
B|--------2-----------2-------|
G|-----2-----2-----2-----2----|
D|----------------------------|
A|----------------------------|
E|--2-----------0-------------|
                                                     
E|----------------------------------------------------|
B|--------------2h-3h-2-----------------0-------------|
G|--------2-----------------------2-----------2-------|
D|----------------------------------------------------|
A|--0-------------------------------------------------|
E|----------------------------------------------------| x3
                             
E|----------------------------|
B|--------2-----------2-------|
G|-----2-----2-----2-----2----|
D|----------------------------|
A|----------------------------|
E|--2-----------0-------------|
                                                     
E|----------------------------------------------------|
B|--------------2h-3h-2L----------2-----0-------------|
G|--------2-----------------------------------2-------|
D|--0-------------------------------------------------|
A|----------------------------------------------------|
E|----------------------------------------------------|


[Chorus]
(Overdrive)  
E|----------------------------|-------|
B|----------------------------|-------|
G|----------------------------|--2----|
D|----------------------------|--2----|
A|----------------------------|--0----|
E|----------------------------|-------|
   PM--------|
E|----------------------------|----------------------------|
B|----------------------------|----------------------------|
G|----------------------------|----------------------------|
D|--2--2--2--2--2--2--2--2----|--4--4--4--4--4--4--4--4----|
A|--2--2--2--2--2--2--2--2----|--4--4--4--4--4--4--4--4----|
E|--2--2--2--2--2--2--2--2----|--4--4--4--4--4--4--4--4----|

E|----------------------------|----------------------------|
B|----------------------------|----------------------------|
G|----------------------------|--2--2--2--2--2--2--2--2----|
D|--0--0--0--0--0--0--0--0----|--2--2--2--2--2--2--2--2----|
A|--0--0--0--0--0--0--0--0----|--0--0--0--0--0--0--0--0----|
E|--0--0--0--0--0--0--0--0----|----------------------------|

E|----------------------------|----------------------------|
B|----------------------------|----------------------------|
G|----------------------------|----------------------------|
D|--2--2--2--2--2--2--2--2----|--4--4--4--4--4--4--4--4----|
A|--2--2--2--2--2--2--2--2----|--4--4--4--4--4--4--4--4----|
E|--2--2--2--2--2--2--2--2----|--4--4--4--4--4--4--4--4----|

E|----------------------------|
B|----------------------------|
G|----------------------------|
D|--0--0--0--0--0--0--0--0----|
A|--0--0--0--0--0--0--0--0----|
E|--0--0--0--0--0--0--0--0----|


[Bridge]
(Clean)
E|--2--2--2--2--2--2--2--2----|--0--0--0--0--0--0--0--0----|
B|--3--3--3--3--3--3--3--3----|--2--2--2--2--2--2--2--2----|
G|--4--4--4--4--4--4--4--4----|--2--2--2--2--2--2--2--2----|
D|--4--4--4--4--4--4--4--4----|--2--2--2--2--2--2--2--2----|
A|--2--2--2--2--2--2--2--2----|--0--0--0--0--0--0--0--0----|
E|----------------------------|----------------------------|
                                                          
E|--0--0--0--0--0--0--0--0----|--2--2--2--2--2--2--2--2----|
B|--0--0--0--0--0--0--0--0----|--3--3--3--3--3--3--3--3----|
G|--1--1--1--1--1--1--1--1----|--2--2--2--2--2--2--2--2----|
D|--2--2--2--2--2--2--2--2----|--0--0--0--0--0--0--0--0----|
A|--2--2--2--2--2--2--2--2----|----------------------------|
E|--0--0--0--0--0--0--0--0----|----------------------------|
                                                          
E|--2--2--2--2--2--2--2--2----|--0--0--0--0--0--0--0--0----|
B|--3--3--3--3--3--3--3--3----|--2--2--2--2--2--2--2--2----|
G|--4--4--4--4--4--4--4--4----|--2--2--2--2--2--2--2--2----|
D|--4--4--4--4--4--4--4--4----|--2--2--2--2--2--2--2--2----|
A|--2--2--2--2--2--2--2--2----|--0--0--0--0--0--0--0--0----|
E|----------------------------|----------------------------|
                                                                  
E|--0--0--0--0--0--0--0--0----|--2--2--2--2--2--2--2--2----|--0----|
B|--0--0--0--0--0--0--0--0----|--3--3--3--3--3--3--3--3----|--2----|
G|--1--1--1--1--1--1--1--1----|--2--2--2--2--2--2--2--2----|--2----|
D|--2--2--2--2--2--2--2--2----|--0--0--0--0--0--0--0--0----|--2----|
A|--2--2--2--2--2--2--2--2----|----------------------------|--0----|
E|--0--0--0--0--0--0--0--0----|----------------------------|-------|

(Overdrive)
E|--------2-----------2-------|
B|--------3-----------3-------|
G|--------4-----------4-------|
D|--------4-----------4-------|
A|--2-----2-----2--2--2-------|
E|----------------------------|

E|----------------------------|----------------------------|----------------|
B|----------------------------|----------------------------|----------------|
G|--------6-----------6-------|--------1-----------1-------|--14-14-13-13---|
D|--------7-----------7-------|--------2-----------2-------|--14-14-14-14---|
A|--------7-----------7-------|--------2-----------2-------|--12-12-11-11---|
E|--7-----7-----7--7--7-------|--2-----2-----2--2--2-------|----------------|

E|--------2-----------2-------|----------------------------|
B|--------3-----------3-------|----------------------------|
G|--------4-----------4-------|--------6-----------6-------|
D|--------4-----------4-------|--------7-----------7-------|
A|--2-----2-----2--2--2-------|--------7-----------7-------|
E|----------------------------|--7-----7-----7--7--7-------|

E|----------------------------|----------------------------|--0----|-------|
B|----------------------------|----------------------------|--2----|-------|
G|--------1-----1-----1-------|--14-14-14-14-14-14-14-14---|--2----|-------|
D|--------2-----2-----2-------|--14-14-14-14-14-14-14-14---|--2----|-------|
A|--------2-----2-----2-------|--12-12-12-12-12-12-12-12---|--0----|-------|
E|--2-----2-----2-----2-------|----------------------------|-------|-------|


[Chorus]
(Clean) First part of the chorus                                              
E|--0-----------0-----0--0--0--0--0-----0-----0--0----|
B|--2-----------2-----2--2--2--2--2-----2-----2--2----|
G|--2-----------2-----2--2--2--2--2-----2-----2--2----|
D|--2-----------2-----2--2--2--2--2-----2-----2--2----|
A|--0-----------0-----0--0--0--0--0-----0-----0--0----|
E|----------------------------------------------------|

E|--0-----------0-----0--0--0--0--0-----0-----0--0----|
B|--0-----------0-----0--0--0--0--0-----0-----0--0----|
G|--1-----------1-----1--1--1--1--1-----1-----1--1----|
D|--2-----------2-----2--2--2--2--2-----2-----2--2----|
A|--2-----------2-----2--2--2--2--2-----2-----2--2----|
E|--0-----------0-----0--0--0--0--0-----0-----0--0----|
         
E|--2-----------2-----2--2--2--2--2-----2-----2--2----|--2----|-------|-------|
B|--2-----------2-----2--2--2--2--2-----2-----2--2----|--3----|-------|-------|
G|--2-----------2-----2--2--2--2--2-----2-----2--2----|--2----|-------|-------|
D|--4-----------4-----4--4--4--4--4-----4-----4--4----|--0----|-------|-------|
A|--4-----------4-----4--4--4--4--4-----4-----4--4----|-------|-------|-------|
E|--2-----------2-----2--2--2--2--2-----2-----2--2----|-------|-------|-------|
                                                     
(Overdrive) Second part of the chorus
E|-------|-------|-------|----------------------------|
B|-------|-------|-------|----------------------------|
G|-------|-------|-------|--2--2--2--2--2--2--2--2----|
D|-------|-------|-------|--2--2--2--2--2--2--2--2----|
A|-------|-------|-------|--0--0--0--0--0--0--0--0----|
E|-------|-------|-------|----------------------------|

E|----------------------------|----------------------------|
B|----------------------------|----------------------------|
G|----------------------------|----------------------------|
D|--2--2--2--2--2--2--2--2----|--4--4--4--4--4--4--4--4----|
A|--2--2--2--2--2--2--2--2----|--4--4--4--4--4--4--4--4----|
E|--2--2--2--2--2--2--2--2----|--4--4--4--4--4--4--4--4----|

E|----------------------------|----------------------------|
B|----------------------------|----------------------------|
G|----------------------------|--2--2--2--2--2--2--2--2----|
D|--0--0--0--0--0--0--0--0----|--2--2--2--2--2--2--2--2----|
A|--0--0--0--0--0--0--0--0----|--0--0--0--0--0--0--0--0----|
E|--0--0--0--0--0--0--0--0----|----------------------------|

E|----------------------------|----------------------------|
B|----------------------------|----------------------------|
G|----------------------------|----------------------------|
D|--2--2--2--2--2--2--2--2----|--4--4--4--4--4--4--4--4----|
A|--2--2--2--2--2--2--2--2----|--4--4--4--4--4--4--4--4----|
E|--2--2--2--2--2--2--2--2----|--4--4--4--4--4--4--4--4----|

E|----------------------------|----------------------------|
B|----------------------------|----------------------------|
G|----------------------------|--2--2--2--2--2--2--2--2----|
D|--0--0--0--0--0--0--0--0----|--2--2--2--2--2--2--2--2----|
A|--0--0--0--0--0--0--0--0----|--0--0--0--0--0--0--0--0----|
E|--0--0--0--0--0--0--0--0----|----------------------------|

E|----------------------------|----------------------------|-------|-------|
B|----------------------------|----------------------------|-------|-------|
G|----------------------------|----------------------------|-------|-------|
D|--2--2--2--2--2--2--2--2----|--4--4--4--4--4--4--4--4----|--0----|-------|
A|--2--2--2--2--2--2--2--2----|--4--4--4--4--4--4--4--4----|--0----|-------|
E|--2--2--2--2--2--2--2--2----|--4--4--4--4--4--4--4--4----|--0----|-------|


[Outro]
(Acoustic)
E|----------------------------------------------------|
B|--------------2h-3h-2-----------2-----0-------------|
G|--------2-----------------------------------2-------|
D|----------------------------------------------------|
A|--0-------------------------------------------------|
E|----------------------------------------------------| x2

E|----------------------------|--2----|-------||
B|--------2-----------2-------|--3----|-------||
G|-----2-----2-----2-----2----|--2----|-------||
D|----------------------------|--0----|-------||
A|----------------------------|-------|-------||
E|--2-----------0-------------|-------|-------||

PM - palm mute
Suggest correction
Creating personal tab
Creating personal tab
You can edit any tab online and save it as your Personal.

You can edit, replace or remove any tab part or add personal notes – all changes will be seen only by you.

Personal tabs can be accessed anytime from any device, even offline.
Learn more »
Give kudos to tab author, rate the tab!
1 2 3 4 5
comments
print report bad tab
guest
You may want to rate the tab now too:
select rating
Wanna post a correction for this tab? Suggest correction