Oops, an error
Loading. Please wait.

This Is How We Do Bass Tab

version 1
version 1

Whole song

Interactive

4,031 views 3 this week
no commentswrite comment
1 2 3 4 5
1 last vote to show rating
add to favorites
launch autoscroll
font size
0
reset
guitar tuner
×
Best way to learn
"This Is How We Do"
Autoscroll
slow
fast
+/-
esc
set tempo
stop
Author
Difficulty
  follow
intermediate
All Time Low
This Is How We Do
Bassist: Zach Merrick

Tabbed by Marshall Edrington

This song is tricky to find out the timing because there is alot going on...I did my 
though to figure it out.  Please rate and comment!!!!

Intro(come in at 0:05)
G|-----------|
D|-----------|
A|----0-0-00-|
E|-0~--------|

Verse 1(0:10-0:47)
G|-----------------------------------------------------------|
D|-----------------------------------------------------------|
A|---------------2-2-22-2-2-2222-4-4-44-44-----0-0-00-2-2-22-|
E|-0-0-00-0-0-00---------------------------444---------------|

G|-----------------------------------------------------------|
D|-----------------------------------------------------------|
A|---------------2-2-22-2-2-2222-4-4-44-44-----0-0-00-2-2-22-|
E|-0-0-00-0-0-00---------------------------444---------------|

G|----------------------------4h6p4--------------------------------|
D|------------------------4h6-------6------------------------------|
A|-0-0-00-2-2-22--------4-------------0-0-00-2-2-22----------------|
E|---------------4-4-44-----------------------------00-000-000-000-|

G|-------------------------------------------------------|
D|-------------------------------------------------------|
A|-0-0-00-2-2-22--------4p2-4-2---0-0-00-0-0-00-2-2-22-2-|
E|---------------4-4-44--------42------------------------|

Chorus(0:48-1:07)
G|-----------------------------------------------------------------------|
D|-----------------------------------------------------------------------|
A|-----------------------------------0000000000000000-2222222222222222---|
E|-0000000000000000-4444444444444444-------------------------------------|

Verse 2(1:08-1:50)
G|---------------------------------------|
D|---------------------------------------|
A|-77777777\22222222-444444--0000-2-2-22-|
E|-------------------------44------------|

G|-----------------------------------------------------------|
D|-----------------------------------------------------------|
A|---------------2-2-22-2-2-2222-4-4-44-44-----0-0-00-2-2-22-|
E|-0-0-00-0-0-00---------------------------444---------------|

G|----------------------------4h6p4--------------------------------|
D|------------------------4h6-------6------------------------------|
A|-0-0-00-2-2-22--------4-------------0-0-00-2-2-22----------------|
E|---------------4-4-44-----------------------------00-000-000-000-|

G|--------------------------9p8-4h6---------------------------------|
D|----------------------4h6-----------------------------------------|
A|-0-0-00-2-2-22----------------0-0-00-0-0-00-2-2-22-2-2-22---------|
E|---------------4-4-44-------------------------------------0---12\-|

Chorus(1:51-2:10)
G|------------------------------------------------------------------|
D|------------------------------------------------------------------|
A|------------------------------------------------------------------|
E|-00-000-000-000-044-444-444-444-455-555-555-555-577-777-777-777-7-|

G|---------------------------------------------------------------------|
D|---------------------------------------------------------------------|
A|--------------------------------------------------------------7------|
E|-00-000-000-000-044-444-444-444-455-555-555-555-577-777-777-7--97-0~-|
Suggest correction
Give kudos to tab author, rate the tab!
1 2 3 4 5
comments
print report bad tab
guest
You may want to rate the tab now too:
select rating
Wanna post a correction for this tab? Suggest correction