Oops, an error
Loading. Please wait.

This Is How We Do Tab

version 1
version 1

Intro

Whole song

Interactive

4,267 views 1 this week
no commentswrite comment
1 2 3 4 5
please rate
add to favorites
launch autoscroll
font size
0
reset
how to read this tab
guitar tuner
Autoscroll
slow
fast
+/-
esc
set tempo
stop
Help us to improve Ultimate-Guitar.com Take our survey!
×
The bottom tab is guitar II

e|---------------------------------------------------------------|
B|---------------------------------------------------------------|
G|-9--8--6--4----9---8---6---------------------------------------|
D|-9--9--7--4----9---9---7---------------------------------------|
A|-7--6--4--2----7---6---4---------------------------------------|
E|---------------------------------------------------------------|


e|---------------------------------------------------------------|
B|---------------------------------------------------------------|
G|---------------------------------------------------------------|
D|---------------2-----------------------------------------------|
A|---------------2-----------222---------------------------------|
E|---------------0-----------000---------------------------------|


Suggest correction
Give kudos to tab author, rate the tab!
1 2 3 4 5
comments
print report bad tab
guest
You may want to rate the tab now too:
select rating
Please do not post tabs as comments. Select "correction" instead!