Oops, an error
Loading. Please wait.

This Is How We Do Tab

version 1
version 1

Whole song

Interactive

8,919 views 6 this week
1 commentread comment
1 2 3 4 5
please rate
add to favorites
launch autoscroll
font size
0
reset
how to read this tab
guitar tuner
Tab Pro tools
  • play this tab
  • loop segment
  • change instrument
  • show fretboard
  • metronome
×
Best way to learn
"This Is How We Do"
Autoscroll
slow
fast
+/-
esc
set tempo
stop
Contributor
-------------------------------------------------------------------------------
                THIS IS HOW WE DO - All Time Low
-------------------------------------------------------------------------------
Written by: All Time Low
Tabbed by: Scott S.
Email: Skrattness@gmail.com
Tuning: Standard

This is the probably the first full tab of this song so expect some flaws but for the 
part its correct.
Email me any corrections please... Enjoy!!


Intro:
Guitar 1-
e|---------------------------------------------------------------------------|
B|---------------------------------------------------------------------------|
G|-9----99--8----88--6----66--4----44----------------------------------------|
D|-9----99--8----88--6----66--4----44----------------------------------------|
A|-7777-77--6666-66--4444-44--2222-22----------------------------------------|
E|---------------------------------------------------------------------------|
    ...      ...      ...      ...

e|---------------------------------------------------------------------------|
B|---------------------------------------------------------------------------|
G|-9----99--8----88--6----66--2-2-2------------------------------------------|
D|-9----99--8----88--6----66--2-2-2------------------------------------------|
A|-7777-77--6666-66--4444-44--0-0-0------------------------------------------|
E|---------------------------------------------------------------------------|
    ...      ...      ...

Guitar 2- (comes in on second measure)
e|---------------------------------------------------------------------------|
B|---------------------------------------------------------------------------|
G|-----------------------------2-2-2-----------------------------------------|
D|-2---------------------------2-2-2-----------------------------------------|
A|-2---------------------------0-0-0-----------------------------------------|
E|-0-------------------------------------------------------------------------|
    


Verse:
Guitar 1-
e|---------------------------------------------------------------------------|
B|---------------------------------------------------------------------------|
G|-99999999-11111111-13131313-99999999-16161616-13131313---------------------|
D|---------------------------------------------------------------------------|
A|-77777777-9-9-9-9--11111111-77777777-14141414-11111111---------------------|
E|---------------------------------------------------------------------------|

e|---------------------------------------------------------------------------|
B|---------------------------------------------------------------------------|
G|-1111111113-999-1111111113-131313------------------------------------------|
D|---------------------------------------------------------------------------|
A|-9-9-9-911--777-9-9-9-911--111111------------------------------------------|
E|---------------------------------------------------------------------------|


Pre-Chorus:
Guitar 1- (something like this, its hard to hear though)
e|---7-------7--------7--------7---------------------------------------------|
B|---------------------------------------------------------------------------|
G|----9--------9--------9--------9-------------------------------------------|
D|--------------9-----------------9------------------------------------------|
A|-7-------7--------7--------7-----------------------------------------------|
E|---------------------------------------------------------------------------|

Guitar 2- (hold these notes)
e|---------------------------------------------------------------------------|
B|---------------------------------------------------------------------------|
G|-9----------------------------99-99-99-99----------------------------------|
D|-9----9----7----11-9--7----9-----------------------------------------------|
A|-7----9----7----11-9--7----9--77-77-77-77----------------------------------|
E|------7----5----9--7--5----7-----------------------------------------------|

e|---------------------------------------------------------------------------|
B|---------------------------------------------------------------------------|
G|-9-------------------------------------------------------------------------|
D|-9----9----7----11-9--7----7----9----9-------------------------------------|
A|-7----9----7----11-9--7----7----9----9-------------------------------------|
E|------7----5----9--7--5----5----7----7-------------------------------------|


Chorus:
Guitar 1-
e|---------------------------------------------------------------------------|
B|---------------------------------------------------------------------------|
G|-99999999-1111-13131313-88888888-9999-1111-16161616-13131313-11113-9999----|
D|---------------------------------------------------------------------------|
A|-77777777-9999-11111111-66666666-7777-9999-14141414-11111111-99911-7777----|
E|---------------------------------------------------------------------------|

Guitar 2-
e|---------------------------------------------------------------------------|
B|---------------------------------------------------------------------------|
G|---------------------------------------------------------------------------|
D|-2------------6-------------7-------------9--------------------------------|
A|-2------------6-------------7-------------9--------------------------------|
E|-0------------4-------------5-------------7--------------------------------|

| .  palm mute
| /  slide up
| \  slide down
| h  hammer-on
| p  pull-off
| ~  vibrato
| +  harmonic
| x  Mute note
===============================================================================
comments
We did not receive enough feedback on this tab! Please rate:
print report bad tab
1 2 3 4 5
1 comment total.
0 reply
RichyHowardBass wrote on December 31 2008, 03:34 pm

not bad! considering this is the only full tab its pretty good

on the verse though, i think the chords are
-99999999- -99999999-
-99999999- not ----------
-77777777- -77777777-

I want to post or [tab]
guest
You may want to rate the tab now too:
select rating
Please do not post tabs as comments. Select "correction" instead!