Oops, an error
Loading. Please wait.

Time Bomb Bass Tab

version 1
version 1

Whole song

Interactive

17,091 views 24 this week
1 commentread comment
1 2 3 4 5
excellent!
x 11
add to favorites
launch autoscroll
font size
0
reset
guitar tuner
Autoscroll
slow
fast
+/-
esc
set tempo
stop
Help us to improve Ultimate-Guitar.com Take our survey!
×
Author
Tuning
D A D G B E
-------------------------------------------------------------------------------
			     TIME BOMB - All Time Low.
-------------------------------------------------------------------------------

Tabbed By : mariewong.





Tuning: Drop D.





Intro [00:07]

G|--------------------------|
D|--------------------------|
A|--2(x8)-----------0(x16)--|   [x2]
D|----------5(x8)-----------|



Verse [00:21]

G|---------------------------------------------|
D|---------------------------------------------|
A|---------------------------------------------|
D|--5(x16)---0(x16)---5(x16)---0(x8)---12(x8)--|

G|------------------------------------------|
D|------------------------------------------|
A|------------------------------------------|
D|--5(x16)---7(x16)---2(x16)---5(x12)---5~--|



Chorus [00:49]

G|--------------------------|
D|--------------------------|
A|--------------------------|   [x2]
D|--9(x8)---5(x8)---7(x16)--|

G|-------------------------------|
D|-------------------------------|
A|--2(x5)----------------0(x16)--|   [x2]
D|--------2-4-0--0(x8)-----------|

G|------|
D|------|
A|------|
D|--5~--|



Verse [01:19]

G|-------------------------------------|
D|-------------------------------------|
A|-------------------------------------|
D|--5(x16)---0(x16)---5(x16)---0(x16)--|

G|---------------------------------------------|
D|---------------------------------------------|
A|---------------------------------------------|
D|--5(x16)---7(x16)---2(x16)---5(x8)---12(x5)--|



Chorus [01:47]

G|--------------------------|
D|--------------------------|
A|--------------------------|   [x2]
D|--9(x8)---5(x8)---7(x16)--|

G|-------------------------------|
D|-------------------------------|
A|--2(x5)----------------0(x16)--|   [x2]
D|--------2-4-0--0(x8)-----------|



Bridge [02:15]

G|---------------------------------|
D|---------------------------------|
A|----------0(x8)---2(x8)---0(x8)--|   [x4]
D|--5(x8)--------------------------|

G|---------------------------|
D|---------------------------|
A|---------------------------|
D|--2(x16)---5(x8)---12(x8)--|



Chorus [02:51]

G|--------------------------|
D|--------------------------|
A|--------------------------|   [x2]
D|--9(x8)---5(x8)---7(x16)--|

G|-------------------------------|
D|-------------------------------|
A|--2(x5)----------------0(x16)--|   [x2]
D|--------2-4-0--0(x8)-----------|

G|----------------------|
D|----------------------|
A|--2(x8)-----------0~--|  
D|----------5(x8)-------|





| /  slide up
| \  slide down
| h  hammer-on
| p  pull-off
| ~  vibrato
| +  harmonic
| x  Mute note
===============================================================================
Suggest correction
What's this?
You can suggest a correction to this tab. Community and Mods will review your correction and vote to approve or reject it.
comments
print report bad tab
1 comment total.
0 reply
Lukeblundell 11 wrote on January 29 2015, 07:21 am

can you do a somrthing for me can you do the tab for famous last word one in the chamber and this is a very good tab ive played it to the song and it sound just like it cheers :)

guest
You may want to rate the tab now too:
select rating
Please do not post tabs as comments. Select "correction" instead!