Oops, an error
Loading. Please wait.

Time Bomb Tab

version 1
version 1

Interactive

34,603 views 30 this week
no commentswrite comment
1 2 3 4 5
accurate
x 6
add to favorites
launch autoscroll
font size
0
reset
how to read this tab
guitar tuner
Autoscroll
slow
fast
+/-
esc
set tempo
stop
Help us to improve Ultimate-Guitar.com Take our survey!
×
Author
Difficulty
Tuning
novice
D A D G B E
Time Bomb from the 2011 album "Dirty work" by All Time Low.
Guitar 1 is correct, but 2 is done by ear.
Listen to the song and it will help!
Guitar 2 comes in when A.G sings "We're like a time bomb"


INTRO - Guitar 1

E|----------------------|
B|----------------------|
G|----------------------|    x2
D|-9------5------7------|
A|-9-x8---5-x8---7-x16--|
D|-9------5------7------|

INTRO - Guitar 2

E|--------------------------------------------------------------|
B|--------------------------------------------------------------|
G|-11-----7-----14-----9------11-----7-----9------11-----7------|
D|-x--x8--x-x8--x--x8--x-x8---x--x8--x-x8--x-x18--x--x8--x--x1--|
A|-9------5-----12-----7------9------5-----7------9------5------|
D|--------------------------------------------------------------|

VERSE 1
 
E|--------------------------------------------------|
B|--------------------------------------------------|
G|--------------------------------------------------|
D|-5-----0-----5-----0-----5-----7-----2-----5------|
A|-5-x16-0-x16-5-x16-0-x16-5-x16-7-x16-2-x16-5-x16--|
D|-5-----0-----5-----0-----5-----7-----2-----5------|

CHORUS - Guitar 1

E|-------------------------------------------|
B|-------------------------------------------|
G|-------------------------------------------|    x2   
D|-9------5------7-------9------5------7-----|
A|-9-x8---5-x8---7-x16---9-x8---5-x8---7-x16-|
D|-9------5------7-------9------5------7-----|

CHORUS - Guitar 2

E|-------------------------------------------------------| E|-----| Let
B|-------------------------------------------------------| B|-----| it
G|-11-----7-----14-----9------11-----7-----9-----11------| G|--7--| ring
D|-x--x8--x-x8--x--x8--x-x8---x--x8--x-x8--x-x8--x--x8---| D|--x--| into
A|-9------5-----12-----7------9------5-----7-----9-------| A|--5--| verse
D|-------------------------------------------------------| D|-----| 2

VERSE 2

E|--------------------------------------------------|
B|--------------------------------------------------|
G|--------------------------------------------------|
D|-5-----0-----5-----0-----5-----7-----2-----5------|
A|-5-x16-0-x16-5-x16-0-x16-5-x16-7-x16-2-x16-5-x16--|
D|-5-----0-----5-----0-----5-----7-----2-----5------|

CHORUS - Guitar 1

E|-------------------------------------------|
B|-------------------------------------------|
G|-------------------------------------------|    x2   
D|-9------5------7-------9------5------7-----|
A|-9-x8---5-x8---7-x16---9-x8---5-x8---7-x16-|
D|-9------5------7-------9------5------7-----|

CHORUS - Guitar 2

E|-------------------------------------------------------| E|-----| Let
B|-------------------------------------------------------| B|-----| it
G|-11-----7-----14-----9------11-----7-----9-----11------| G|--7--| ring
D|-x--x8--x-x8--x--x8--x-x8---x--x8--x-x8--x-x8--x--x8---| D|--x--| into
A|-9------5-----12-----7------9------5-----7-----9-------| A|--5--| verse
D|-------------------------------------------------------| D|-----| 3

Verse 3

E|--------------------|
B|--------------------|
G|--------------------|     
D|-9------5------7----|
A|-9-x16--5-x8---7-x8-|
D|-9------5------7----|

E|------------------------|
B|------------------------|
G|------------------------|   x3    
D|-5-----7-----9-----7----|
A|-5-x8--7-x8--9-x8--7-x8-|
D|-5-----7-----9-----7----|

E|---------------|
B|---------------|
G|---------------|     
D|-2------5------|
A|-2x16---5-x16--|
D|-2------5------|

CHORUS - Guitar 1

E|-------------------------------------------|
B|-------------------------------------------|
G|-------------------------------------------|    x2   
D|-9------5------7-------9------5------7-----|
A|-9-x8---5-x8---7-x16---9-x8---5-x8---7-x16-|
D|-9------5------7-------9------5------7-----|

CHORUS - Guitar 2

E|-----------------------------------------------------| 
B|-----------------------------------------------------| 
G|-11-----7-----14-----9------11-----7-----9-----7-----| 
D|-x--x8--x-x8--x--x8--x-x8---x--x8--x-x8--x-x8--x-x8--| 
A|-9------5-----12-----7------9------5-----7-----5-----| 
D|-----------------------------------------------------| 

OUTRO - Guitar 1 & 2

E|----------------------|
B|----------------------|
G|----------------------|   
D|-9------5------7------|
A|-9-x8---5-x8---7-x1---|
D|-9------5------7------|

E|-----------------------|
B|-----------------------|
G|-----------------------|    
D|-11------7------9------|
A|--x-x8---x-x8---x-x1---|
D|--9------5------7------|

Luke Thurlow 01.03.11
Suggest correction
comments
print report bad tab
guest
You may want to rate the tab now too:
select rating
Wanna post a correction for this tab? Suggest correction