Oops, an error
Loading. Please wait.

Time Bomb Tab

version 4
version 4

Interactive

47,512 views 30 this week
2 commentsread comments
1 2 3 4 5
x 12
add to favorites
launch autoscroll
font size
0
reset
how to read this tab
guitar tuner
Autoscroll
slow
fast
+/-
esc
set tempo
stop
Help us to improve Ultimate-Guitar.com Take our survey!
×
Author
Difficulty
Tuning
intermediate
D A D G B E
-------------------------------------------------------------------------------
                             TIME BOMB - All Time Low
-------------------------------------------------------------------------------
Tabbed by: Stephen Ausman
Email: stephenausman at gmail

Tuning: Drop D

Notes: Should be good for the most part.  If you have any corrections shoot
me an email (above).  I should have a video cover of the song up on YouTube
at http://youtube.com/smackedbyevo soon.



                                                                        (0:00)
Guitar 1 [Lead]
e|---------------------------------------------------------------------------|
B|--------------------------------------------------3------------------------|
G|----------------------------------------------2-4--------------------------|
D|---2-4--2-4--4-2-4--2-4--4-2-4--2-4---4-0-2-4------------------------------|
A|---------------------------------------------------------------------------|
D|---------------------------------------------------------------------------|

                                                                        (0:06)

Guitar 1 [Lead]
e|---------------------------------------------------------------------------|
B|---------------------------------------------------------------------------|
G|---9-11-9-11------14-----9--7~-----9-11--9-11------7------9----------------|
D|---  [x2]   -----[x8]---[x6]-------   [x2]   -----[x8]---[x8]--------------|
A|---7-9--7-9~------12-----7--5~-----7-9~--7-9~------5------7----------------|
D|---------------------------------------------------------------------------|

Guitar 2 [Rhythm]
e|---------------------------------------------------------------------------|
B|---------------------------------------------------------------------------|
G|---------------------------------------------------------------------------|
D|---9--------5--------7-----------------------------------------------------| 
A|---9-[x8]---5-[x8]---7-[x16]-----------------------------------------------|
D|---9--------5--------7-----------------------------------------------------|(x2)


[Verse 1] (0:20)

Guitar 2 [Rhythm]
e|---------------------------------------------------------------------------|
B|---------------------------------------------------------------------------|
G|-----------7-----------------7---------------------------------------------|
D|---5~------7-[x16]--5--------7-[x16]---------------------------------------|
A|---5~------5--------5-[x16]--5---------------------------------------------|
D|---5~---------------5------------------------------------------------------|
             x        x        x

[Pre-chorus 1] (0:33)

Guitar 1 [Lead]
e|------------14~--------14----------14~----12~--------14~----14~------------|
B|---10h11p10-----10h11--------10h11-----10------10h11-----10----------------|
G|---------------------------------------------------------------------------|
D|---------------------------------------------------------------------------|
A|---------------------------------------------------------------------------|
D|---------------------------------------------------------------------------|

Guitar 2 [Rhythm]
e|---------------------------------------------------------------------------|
B|---------------------------------------------------------------------------|
G|---------------------------------------------------------------------------|
D|-----5-------7--------2--------5--------5----------------------------------|
A|-----5-[x16]-7-[x16]--2-[x16]--5-[x12]--5----------------------------------|
D|-----5-------7--------2--------5--------5----------------------------------|
       x       x        x        x


[Chorus] (0:48)

Guitar 1 [Lead]
e|----------------------------------|      e|--------------------------------|
B|----------------------------------|      B|--------------------------------|
G|---16-------12-------14-----------|      G|---16-------12-------14---------|
D|------[x8]-----[x8]-----[x16]-----| x2   D|------[x4]-----[x4]-----[x8]----| x2
A|---14-------10-------12-----------|      A|---14-------10-------12---------|
D|----------------------------------|      D|--------------------------------|
                                               (play the 2nd half staccato)

Guitar 2 [Rhythm]
e|-----------------------------------------|     e|--------------------------|
B|-----------------------------------------|     B|--------------------------|
G|-----------------------------------------|     G|--------------------------|
D|---9--------5--------7-------------------| x4  D|---------5~---------------|
A|---9-[x8]---5-[x8]---7-[x16]-------------|     A|---------5~---------------|
D|---9--------5--------7-------------------|     D|---------5~---------------|


[Verse 2] (1:19)

Guitar 2 [Rhythm]
e|---------------------------------------------------------------------------|
B|---------------------------------------------------------------------------|
G|------------7-----------------7--------------------------------------------|
D|---5--------7-[x16]--5--------7-[x16]--------------------------------------|
A|---5-[x16]--5--------5-[x16]--5--------------------------------------------|
D|---5-----------------5-----------------------------------------------------|
     x        x        x        x

[Pre-chorus 2] (1:33)

repeat Pre-chorus 1 w/o lead part

[Chorus 2] (1:46)

repeat Chorus ^

[Bridge] (2:15)
Guitar 1 [Lead]
e|----17-15-14---------------------------------------------------------------|
B|-------------15-14---------------------------------------------------------|
G|-------------------14------------------------------------------------------|
D|---------------------------------------------------------------------------|
A|---------------------------------------------------------------------------|
D|---------------------------------------------------------------------------|

Guitar 2 [Rhythm]
e|-----------------------------------------|     e|--------------------------|
B|-----------------------------------------|     B|--------------------------|
G|-----------------------------------------|     G|--------------------------|
D|---5--------7--------9-------7-----------| x4  D|---2-------5--------9-----|
A|---5-[x8]---7-[x8]---9-[x8]--7-[x8]------|     A|---2-[x16]-5-[x16]--9-[x8]|
D|---5--------7--------9-------7-----------|     D|---2-------5--------9-----|
     x        x        x       x                      x       x

                                                               Chorus 3 (2:51)

repeat Chorus ^

                                                                        (3:18)

e|---------------------------------------------------------------------------|
B|---------------------------------------------------------------------------|
G|---9-11-9-11---------------------------------------------------------------|
D|---  [x2]   -----7~--------------------------------------------------------|
A|---7-9--7-9~-----7~--------------------------------------------------------|
D|-----------------7~--------------------------------------------------------|



************************************

| ~  Vibrato
| h  Hammer-on
| p  Pull-off

************************************
Suggest correction
comments
print report bad tab
2 comments total.
0 reply
nickdonnelly 56 May 21, 2011 01:17 PM

What bit's the staccato, i'm daft :$

0 reply
Bells4777 20 Dec 23, 2011 06:18 PM

whats the strumming pattern?

guest
You may want to rate the tab now too:
select rating
Wanna post a correction for this tab? Suggest correction