Oops, an error
Loading. Please wait.

Time Bomb Tab

version 5
version 5

Interactive

1,306 views 1 this week
no commentswrite comment
1 2 3 4 5
please rate
add to favorites
launch autoscroll
font size
0
reset
how to read this tab
guitar tuner
Autoscroll
slow
fast
+/-
esc
set tempo
stop
Help us to improve Ultimate-Guitar.com Take our survey!
×
Author
Difficulty
Tuning
intermediate
D A D G B E
All Time Low, Time Bomb


Intro Lead

e|-----------------------------------------------------|
B|--------------------------------------------3--------|
G|----------------------------------------2-4----------|
D|--2-4--2-4--2-4--2-4--2-4--2-4--4-0-2-4--------------|
A|-----------------------------------------------------|
D|-----------------------------------------------------|

Intro Rhythm

e|----------------------------------------------|
B|----------------------------------------------|
G|--4--4----4----4----4----4----4---------------|
D|--x--x----x----x----x----x----x---------------|
A|--2--2----2----2----2----2----2---------------|
D|----------------------------------------------|



Pre Verse Lead

e|------------------------------------------------------------------------|
B|------------------------------------------------------------------------|
G|--9-11-9-11-9-11-9-11---14--9---7----9-11-9-11-9-11-9-11---7-----5---7~-|
D|--x-x--x-x--x-x--x-x---(x8)(x6)-x----x-x--x-x--x-x--x-x---(x8)-(x8)--x~-|
A|--7-9--7-9--7-9--7-9----12--7---5----7-9--7-9--7-9--7-9----5-----4---5~-|
D|------------------------------------------------------------------------|


Pre Verse Rhythm

e|---------------------------------|
B|---------------------------------|
G|---------------------------------|
D|---9--------5--------7-----------| x2
A|---9-(x8)---5-(x8)---7-(x16)-----|
D|---9--------5--------7-----------|


Verse Lead

e|--10(X24)-9(X4)-5(X4)--|
B|-----------------------|
G|-----------------------|
D|-----------------------| x2
A|-----------------------|
D|-----------------------|


Verse Rhythm


e|---------------------------------------------------------------|
B|---------------------------------------------------------------|
G|--------------7-----------------7------------------------------|
D|---5----------7(x16)---5--------7(x16)-------------------------|
A|---5(x16)-----5--------5-(x16)--5------------------------------|
D|---5-------------------5---------------------------------------|

Pre Chorus Lead

e|-----14(X5)----14(X8)----14(X5)----12(X8)----14(X5)----14(X8)-|----10(x6)-|
B|--------------------------------------------------------------|-----------|
G|--11--------11--------11--------11--------11--------11--------|--7(X8)----|
D|--------------------------------------------------------------|-----------|
A|--------------------------------------------------------------|-----------|
D|--------------------------------------------------------------|-----------|


Pre Chorus Rhythm

e|---------------------------------------------------------|
B|---------------------------------------------------------|
G|---------------------------------------------------------|
D|-----5-------7--------2--------5-------------------------|
A|-----5(x16)--7(x16)---2(x16)---5(x12)--------------------|
D|-----5-------7--------2--------5-------------------------|


Chorus Lead


e|----------------------------------|
B|----------------------------------|
G|---16-------12-------14-----------|
D|--(x8)-----(x8)-----(x16)---------| x2
A|---14-------10-------12-----------|
D|----------------------------------|


e|-------------------------------------|    ---|
B|-------------------------------------|    ---|
G|---6--7------6--7-------7-----6------|    -7-|
D|---x--x(x6)--x--x(x6)---x(x8)-x(x8)--| x2 -x-|
A|---4--5------4--5-------5-----4------|    -5-|
D|-------------------------------------|    ---|

Chorus Rhythm

e|----------------------------------|    
B|----------------------------------|    
G|----------------------------------|    
D|---9--------5--------7------------| x2 
A|---9(x8)----5(x8)----7(x16)-------|    
D|---9--------5--------7------------|    

e|--------------------------------------------------------|    
B|--------------------------------------------------------|    
G|--16----14----14----9----7----16----14----14----9-------|    
D|-(x8)--(x8)--(x8)--(x6)--x---(x8)--(x8)--(x8)--(x8)--5~-|  
A|--14----12----12----7----5----14----12----12----7----5~-|    
D|-----------------------------------------------------5~-| 


Verse 2 Lead

e|--10(X24)-9(X4)-5(X4)-|
B|----------------------|
G|----------------------|
D|----------------------|
A|----------------------|
D|----------------------|

Verse 2 Rhythm

e|---------------------------------------------------------------|
B|---------------------------------------------------------------|
G|--------------7-----------------7------------------------------|
D|---5----------7(x16)---5--------7(x16)-------------------------|
A|---5(x16)-----5--------5-(x16)--5------------------------------|
D|---5-------------------5---------------------------------------|


Pre Chorus 2 Lead


e|---------------|-------------------------------------------   |----10(x6)-|
B|-10-10---------|----------------------------10-------------   |-----------|
G|------12-11-9--|--9-9-11-11-9-9-11-11-9-9-11---12-11-9-----   |--7(x8)----|
D|---------------|------------------------------------------- X3|-----------|
A|---------------|-------------------------------------------   |-----------|
D|---------------|-------------------------------------------   |-----------|

Pre Chorus 2 Rhythm

e|---------------------------------------------------------|
B|---------------------------------------------------------|
G|---------------------------------------------------------|
D|-----5-------7--------2--------5-------------------------|
A|-----5(x16)--7(x16)---2(x16)---5(x12)--------------------|
D|-----5-------7--------2--------5-------------------------|


Chorus 2 Lead

e|----------------------------------|
B|----------------------------------|
G|---16-------12-------14-----------|
D|--(x8)-----(x8)-----(x16)---------| x2
A|---14-------10-------12-----------|
D|----------------------------------|


e|-------------------------------------|
B|-------------------------------------|
G|---6--7------6--7-------7-----6------|
D|---x--x(x6)--x--x(x6)---x(x8)-x(x8)--| x2
A|---4--5------4--5-------5-----4------|
D|-------------------------------------|

Chorus 2 Rhythm

e|----------------------------------|    
B|----------------------------------|    
G|----------------------------------|    
D|---9--------5--------7------------| x2 
A|---9(x8)----5(x8)----7(x16)-------|    
D|---9--------5--------7------------|    

e|--------------------------------------------------------|    
B|--------------------------------------------------------|    
G|--16----14----14----9----7----16----14----14----9-------|    
D|-(x8)--(x8)--(x8)--(x6)--x---(x8)--(x8)--(x8)--(x8)--5~-|  
A|--14----12----12----7----5----14----12----12----7----5~-|    
D|-----------------------------------------------------5~-| 


Breakdown Lead

e|----17-15-14-------------|
B|-------------15----14----|
G|---------------------14--|
D|-------------------------|
A|-------------------------|
D|-------------------------|

e|--------------------------------------15-14-------------------17-15-14----|
B|--15(x24)--14----15(x24)--14----15(x8)-------15(x8)--14----12----------15-|
G|-------------14-------------14-------------------------14-----------------|
D|--------------------------------------------------------------------------|
A|--------------------------------------------------------------------------|
D|--------------------------------------------------------------------------|

Breakdown Rhythm

e|-----------------------------------------|
B|-----------------------------------------|
G|-----------------------------------------|
D|---5--------7--------9-------7-----------| x4
A|---5(x8)----7(x8)----9(x8)---7(x8)-------|
D|---5--------7--------9-------7-----------|

Build Up Rhythm

e|--------------------------|
B|--------------------------|
G|--------------------------|
D|---2-------5--------9-----|
A|---2(x16)--5(x16)---9(x8)-|
D|---2-------5--------9-----|

Chorus 3 Lead

e|----------------------------------|
B|----------------------------------|
G|---16-------12-------14-----------|
D|--(x8)-----(x8)-----(x16)---------| x2
A|---14-------10-------12-----------|
D|----------------------------------|


e|-------------------------------------|
B|-------------------------------------|
G|---6--7------6--7-------7-----6------|
D|---x--x(x6)--x--x(x6)---x(x8)-x(x8)--| x2
A|---4--5------4--5-------5-----4------|
D|-------------------------------------|

Chorus Rhythm

e|----------------------------------|
B|----------------------------------|
G|----------------------------------|
D|---9--------5--------7------------| x2
A|---9(x8)----5(x8)----7(x16)-------|
D|---9--------5--------7------------|

e|------------------------------------------------------|    
B|------------------------------------------------------|    
G|--16----14----14----9----7----16----14----14----9-----|    
D|-(x8)--(x8)--(x8)--(x6)--x---(x8)--(x8)--(x8)--(x8)---|  
A|--14----12----12----7----5----14----12----12----7-----|    
D|------------------------------------------------------|

Ending Lead

e|---------------------------|
B|---------------------------|
G|-9-11-9-11-9-11-9-11---14--|
D|-x-x--x-x--x-x--x-x----x---|
A|-7-9--7-9--7-9--7-9----12--|
D|---------------------------|

Ending Rhythm

e|----------------------|
B|----------------------|
G|----------------------|
D|---9--------5------7--|
A|---9(x8)----5(x8)--7--|
D|---9--------5------7--|
Suggest correction
Give kudos to tab author, rate the tab!
1 2 3 4 5
comments
print report bad tab
guest
You may want to rate the tab now too:
select rating
Wanna post a correction for this tab? Suggest correction