Oops, an error
Loading. Please wait.

Time Bomb Tab

version 6
version 6

Interactive

776 views 1 this week
no commentswrite comment
1 2 3 4 5
please rate
add to favorites
launch autoscroll
font size
0
reset
how to read this tab
guitar tuner
Autoscroll
slow
fast
+/-
esc
set tempo
stop
Help us to improve Ultimate-Guitar.com Take our survey!
×
Difficulty
Tuning
novice
D A D G B E
All time low - time bomb

It should be pretty acurate.Please feel free to coment.
enjoy!


Intro: 

Guitar 1 [Lead]
e|------------------------------------------------------------------------------------|
B|------------------------------------------------------------------------------------|
G|---9-11-9-11~-9-11-9-11~--14-----9------7-------9-11-9-11~-9-11-9-11~-7------9------|
D|---x-x--x-x---x-x--x-x-----x-[x8]-x-[x6]-x-[x2]-x-x--x-x---x-x--x-x---x-[x8]-x-[x8]-|
A|---7-9--7-9~--7-9--7-9~---12-----7------5-------7-9--7-9~--7-9--7-9~--5------7------|
D|------------------------------------------------------------------------------------|

Guitar 2 [Rhythm]
e|---------------------------------------------------------------------------|
B|---------------------------------------------------------------------------|
G|---------------------------------------------------------------------------|
D|---9--------5--------7-----------------------------------------------------| x2
A|---9-[x8]---5-[x8]---7-[x16]-----------------------------------------------|
D|---9--------5--------7-----------------------------------------------------|


Verse:

Guitar 1 [Lead]
e|---------------------------------------------------------------------------|
B|---------------------------------------------------------------------------|
G|-----------7-----------------7---------------------------------------------|
D|---5~------7-[x16]--5--------7-[x16]---------------------------------------|
A|---5~------5--------5-[x16]--5---------------------------------------------|
D|---5~---------------5------------------------------------------------------|
             x        x        x

 Pre-chorus:

Guitar 1 [Lead]
e|------------14~--------14----------14~----12~--------14~----14~------------|
B|---10h11p10-----10h11--------10h11-----10------10h11-----10----------------|
G|---------------------------------------------------------------------------|
D|---------------------------------------------------------------------------|
A|---------------------------------------------------------------------------|
D|---------------------------------------------------------------------------|

Guitar 2 [Rhythm]
e|---------------------------------------------------------------------------|
B|---------------------------------------------------------------------------|
G|---------------------------------------------------------------------------|
D|-----5-------7--------2--------5--------5----------------------------------|
A|-----5-[x16]-7-[x16]--2-[x16]--5-[x8]---5-[x4]-----------------------------|
D|-----5-------7--------2--------5--------5----------------------------------|
       x       x        x        x
           
           
           
           
Chorus:

Guitar 1 [Lead]
e|----------------------|   |----------------------------------------------------------------------|
B|----------------------|   |----------------------------------------------------------------------|
G|-11-----7------9------|   |-9-11-----9-11---- 14-----9------7------9-11----9-11----7------9------|
D|-x-[x8]-x-[x8]-x-[x16]|x2 |-x-x-[x2]-x-x-[x2]-x-[x8]-x-[x6]-x-[x2]-x-x-[2]-x-x-[2]-x-[x8]-x-[x8]-|
A|-9------5------7------|   |-7-9------7-9------12-----7------5------7-9-----7-9-----5------7------|
D|----------------------|   |----------------------------------------------------------------------|

Guitar 2 [Rhytm]
e|-----------------------------------------|    |----|
B|-----------------------------------------|    |----|
G|-----------------------------------------|    |----|
D|---9--------5--------7-------------------| x4 |-5~-|
A|---9-[x8]---5-[x8]---7-[x16]-------------|    |-5~-|
D|---9--------5--------7-------------------|    |-5~-|


Verse
Pre-Chorus
Chorus


Bridge:

Guitar 1 [Lead]                                    Both guitars
e|-----------------------------------------|    e|--------------------------|
B|-----------------------------------------|    B|--------------------------|
G|-----------------------------------------|    G|--------------------------|
D|---5--------7--------9-------7-----------| x4 D|---2-------5--------9-----|
A|---5-[x8]---7-[x8]---9-[x8]--7-[x8]------|    A|---2-[x16]-5-[x16]--9-[x8]|
D|---5--------7--------9-------7-----------|    D|---2-------5--------9-----|
     x        x        x       x                      x       x
         
Chorus

Outro:
e|-------------------|
B|-------------------|
G|---9-11~-9-11~-----|
D|---x-x---x-x----7~-|
A|---7-9~--7-9~---7~-|
D|----------------7~-|
Suggest correction
What's this?
You can suggest a correction to this tab. Community and Mods will review your correction and vote to approve or reject it.
comments
We did not receive enough feedback on this tab! Please rate:
print report bad tab
1 2 3 4 5
guest
You may want to rate the tab now too:
select rating
Please do not post tabs as comments. Select "correction" instead!