Oops, an error
Loading. Please wait.

To Live And Let Go Tab

43 views 1 this week
no commentswrite comment
1 2 3 4 5
3 more votes to show rating
add to favorites
launch autoscroll
font size
0
reset
how to read this tab
guitar tuner
Autoscroll
slow
fast
+/-
esc
set tempo
stop
Help us to improve Ultimate-Guitar.com Take our survey!
×
Author
Difficulty
Tuning
intermediate
C# G# C# F# A# D#
All Time Low - To Live and Let Go

Gtr 1 = Lead
Gtr 2 = Rythm

Drop C# tuning

Tabbed by Jasper Vellekoop

[Intro]
Gtr 1
d# |-----------------------------------------------------------------------------------|  
A# |-------7-------3-------7--------3--------7--------3--------------------------------|
F# |-------7---------------7-----------------7------------------10---------12----------|
C# |-----7-------5-------7--------5--------7--------5--------10---------12-------------|
G# |---5-----5/3--------5-----5/3--------5------5/3--------8-------8/10----------------|
C# |-----------------------------------------------------------------------------------| 2x

Gtr 2
d# |-----------------------------------------------------------------------------------|  
A# |-----------------------------------------------------------------------------------|
F# |------------5-5-5-----------5-5-5-----------5-5-5----------------------------------|
C# |---0--0--0--5-5-5--0--0--0--5-5-5--0--0--0--5-5-5--3-3--3--3--5-5-5----------------|
G# |---0--0--0--3-3-3--0--0--0--3-3-3--0--0--0--3-3-3--3-3--3--3--5-5-5----------------|
C# |---0--0--0---------0--0--0---------0--0--0---------3-3--3--3--5-5-5----------------|


[Verse]
Gtr 1
d# |-----------------------------------------------------------------------------------|  
A# |-------7-------3-------7--------3--------7--------3--------------------------------|
F# |-------7---------------7-----------------7------------------10---------12----------|
C# |-----7-------5-------7--------5--------7--------5--------10---------12-------------|
G# |---5-----5/3--------5-----5/3--------5------5/3--------8-------8/10----------------|
C# |-----------------------------------------------------------------------------------| 2x

Gtr 2
d# |-----------------------------------------------------------------------------------|  
A# |-----------------------------------------------------------------------------------|
F# |-----------------------------------------------------------------------------------|
C# |----------------------------------------------------3-3--3--3--5-5-5---------------|
G# |----------------------------------------------------3-3--3--3--5-5-5---------------|
C# |----------------------------------------------------3-3--3--3--5-5-5---------------| 2x


[Pre-Chorus]
Gtr 1
d# |-----------------------------------------------------------------------------------|  
A# |-----------------------------------------------------------------------------------|
F# |---14-14-14-12-12-12--10-10-10-10--12-12-12-12-12----6-6-6-6-6-6-6-6-7-7-7-7-7-7-6-|
C# |----x--x--x--x--x--x---x--x--x--x---x--x--x--x--x----x-x-x-x-x-x-x-x-x-x-x-x-x-x-x-|
G# |---12-12-12-10-10-10---8--8--8--8--10-10-10-10-10----4-4-4-4-4-4-4-4-5-5-5-5-5-5-4-|
C# |-----------------------------------------------------------------------------------| 


Gtr 2
d# |-----------------------------------------------------------------------------------|  
A# |-----------------------------------------------------------------------------------|
F# |-----------------------------------------------------6-6-6-6-6-6-6-6-7-7-7-7-7-7-6-|
C# |--3-3--3--3--5-5-5---3-3--3--3-5-5-5-3-3--3-3-5-5-5--6-6-6-6-6-6-6-6-7-7-7-7-7-7-6-|
G# |--3-3--3--3--5-5-5---3-3--3--3-5-5-5-3-3--3-3-5-5-5--4-4-4-4-4-4-4-4-5-5-5-5-5-5-4-|
C# |--3-3--3--3--5-5-5---3-3--3--3-5-5-5-3-3--3-3-5-5-5--------------------------------| 


[Chorus]
Gtr 2
d# |---------------------------------------------------------------------------|  
A# |---------------------------------------------------------------------------|
F# |-------------------------------------5--5-5--5-5-5-5-----------------------|
C# |----8--8-8--8-8-8-8-3--3-3--3-3-3-3--5--5-5--5-5-5-5---0--0-0--0-0-0-------|
G# |----8--8-8--8-8-8-8-3--3-3--3-3-3-3--3--3-3--3-3-3-3---0--0-0--0-0-0-------|
C# |----8--8-8--8-8-8-8-3--3-3--3-3-3-3--------------------0--0-0--0-0-0-------| 


d# |---------------------------------------------------------------------------|  
A# |---------------------------------------------------------------------------|
F# |---------------------------------------------------------------------------|
C# |----8--8-8--8-8-8-8-3--3-3--3-3-3-3--7--7-7--7-7--7-7-7-7-7-7-7-7-7-7-7-7--|
G# |----8--8-8--8-8-8-8-3--3-3--3-3-3-3--7--7-7--7-7--7-7-7-7-7-7-7-7-7-7-7-7--|
C# |----8--8-8--8-8-8-8-3--3-3--3-3-3-3--7--7-7--7-7--7-7-7-7-7-7-7-7-7-7-7-7--|

Play these two bars twice 


Gtr 1
This part was quite hard to figure out, I think they play something like this:
d# |-------------------------------------------------------------------------------------|  
A# |-------------------------------------------------------------------------------------|
F# |---14-14-14-14---14-14-14-14--5-5-5-5---5-5-5-5--9-9-9-9---9-9-9-9--7-7-7-7--7-7-7-7-|
C# |----x--x--x--x----x--x--x--x--x-x-x-x---x-x-x-x--x-x-x-x---x-x-x-x--x-x-x-x--x-x-x-x-|
G# |---12-12-12-12---12-12-12-12--3-3-3-3---3-3-3-3--7-7-7-7---7-7-7-7--5-5-5-5--5-5-5-5-| 
C# |-------------------------------------------------------------------------------------|

d# |------------------------------------------------------------------------------|  
A# |------------------------------------------------------------------------------|
F# |---14-14-14-14---14-14-14-14--5-5-5-5---5-5-5-5--9-9-9-9---6-6-6-6--7-7-7-7-6-|
C# |----x--x--x--x----x--x--x--x--x-x-x-x---x-x-x-x--x-x-x-x---x-x-x-x--x-x-x-x-x-|
G# |---12-12-12-12---12-12-12-12--3-3-3-3---3-3-3-3--7-7-7-7---4-4-4-4--5-5-5-5-4-| 
C# |------------------------------------------------------------------------------|

d# |-------------------------------------------------------------------|  
A# |-----------------10------------------------------10----------------|
F# |--------10----10----10----10-------------10---10----10----10-------|
C# |--12-12----12----------12----12----10-10---10----------10-----10---|
G# |-------------------------------------------------------------------|
C# |-------------------------------------------------------------------|  

d# |-------------------------------------------------------------------|  
A# |---------------8--------------------------------10-----------------|
F# |--------9----9-----9----9--------------10----10----10----10--------|
C# |--10-10---10---------10---10-----12-12----12----------12----12-----|
G# |-------------------------------------------------------------------|
C# |-------------------------------------------------------------------| 

d# |-------------------------------------------------------------------|  
A# |-----------------10------------------------------10----------------|
F# |--------10----10----10----10-------------10---10----10----10-------|
C# |--12-12----12----------12----12----10-10---10----------10-----10---|
G# |-------------------------------------------------------------------|
C# |-------------------------------------------------------------------|

d# |-------------------------------------------------------------------|  
A# |---------------10--------------------------------------------------|
F# |--------9----9----9----9-----9/------------------------------------|
C# |--11-11---11--------11---11----------------------------------------|
G# |-------------------------------------------------------------------|
C# |-------------------------------------------------------------------|    


[Verse] 
Gtr 1
d# |-----------------------------------------------------------------------------------|  
A# |-------7-------3-------7--------3--------7--------3--------------------------------|
F# |-------7---------------7-----------------7------------------10---------12----------|
C# |-----7-------5-------7--------5--------7--------5--------10---------12-------------|
G# |---5-----5/3--------5-----5/3--------5------5/3--------8-------8/10----------------|
C# |-----------------------------------------------------------------------------------|

After the chorus this rythm guitar kicks in
Gtr 2
d# |-----------------------------------------------------------------------------------|  
A# |-----------------------------------------------------------------------------------|
F# |-5---5---5------------5-5-5-----------5-5-5-----------5-5-5------------------------|
C# |-5---5---5---0--0--0--5-5-5--0--0--0--5-5-5--0--0--0--5-5-5--3-3--3--3--5-5-5------|
G# |-3---3---3---0--0--0--3-3-3--0--0--0--3-3-3--0--0--0--3-3-3--3-3--3--3--5-5-5------|
C# |-------------0--0--0---------0--0--0---------0--0--0---------3-3--3--3--5-5-5------|


Gtr 1
d# |-----------------------------------------------------------------------------------|  
A# |-------7-------3-------7--------3--------7--------3--------------------------------|
F# |-------7---------------7-----------------7------------------10---------12----------|
C# |-----7-------5-------7--------5--------7--------5--------10---------12-------------|
G# |---5-----5/3--------5-----5/3--------5------5/3--------8-------8/10----------------|
C# |-----------------------------------------------------------------------------------| 2x

Gtr 2
d# |-----------------------------------------------------------------------------------|  
A# |-----------------------------------------------------------------------------------|
F# |-----------------------------------------------------------------------------------|
C# |----------------------------------------------------3-3--3--3--5-5-5---------------|
G# |----------------------------------------------------3-3--3--3--5-5-5---------------|
C# |----------------------------------------------------3-3--3--3--5-5-5---------------| 2x


[Pre-Chorus]
Gtr 1
d# |-----------------------------------------------------------------------------------|  
A# |-----------------------------------------------------------------------------------|
F# |---14-14-14-12-12-12--10-10-10-10--12-12-12-12-12----6-6-6-6-6-6-6-6-7-7-7-7-7-7-6-|
C# |----x--x--x--x--x--x---x--x--x--x---x--x--x--x--x----x-x-x-x-x-x-x-x-x-x-x-x-x-x-x-|
G# |---12-12-12-10-10-10---8--8--8--8--10-10-10-10-10----4-4-4-4-4-4-4-4-5-5-5-5-5-5-4-|
C# |-----------------------------------------------------------------------------------| 


Gtr 2
d# |-----------------------------------------------------------------------------------|  
A# |-----------------------------------------------------------------------------------|
F# |-----------------------------------------------------6-6-6-6-6-6-6-6-7-7-7-7-7-7-6-|
C# |--3-3--3--3--5-5-5---3-3--3--3-5-5-5-3-3--3-3-5-5-5--6-6-6-6-6-6-6-6-7-7-7-7-7-7-6-|
G# |--3-3--3--3--5-5-5---3-3--3--3-5-5-5-3-3--3-3-5-5-5--4-4-4-4-4-4-4-4-5-5-5-5-5-5-4-|
C# |--3-3--3--3--5-5-5---3-3--3--3-5-5-5-3-3--3-3-5-5-5--------------------------------| 


[Chorus]
Gtr 2
d# |---------------------------------------------------------------------------|  
A# |---------------------------------------------------------------------------|
F# |-------------------------------------5--5-5--5-5-5-5-----------------------|
C# |----8--8-8--8-8-8-8-3--3-3--3-3-3-3--5--5-5--5-5-5-5---0--0-0--0-0-0-------|
G# |----8--8-8--8-8-8-8-3--3-3--3-3-3-3--3--3-3--3-3-3-3---0--0-0--0-0-0-------|
C# |----8--8-8--8-8-8-8-3--3-3--3-3-3-3--------------------0--0-0--0-0-0-------| 


d# |---------------------------------------------------------------------------|  
A# |---------------------------------------------------------------------------|
F# |---------------------------------------------------------------------------|
C# |----8--8-8--8-8-8-8-3--3-3--3-3-3-3--7--7-7--7-7--7-7-7-7-7-7-7-7-7-7-7-7--|
G# |----8--8-8--8-8-8-8-3--3-3--3-3-3-3--7--7-7--7-7--7-7-7-7-7-7-7-7-7-7-7-7--|
C# |----8--8-8--8-8-8-8-3--3-3--3-3-3-3--7--7-7--7-7--7-7-7-7-7-7-7-7-7-7-7-7--|

Play these two bars twice 


Gtr 1
This part was quite hard to figure out, I think they play something like this:
d# |-------------------------------------------------------------------------------------|  
A# |-------------------------------------------------------------------------------------|
F# |---14-14-14-14---14-14-14-14--5-5-5-5---5-5-5-5--9-9-9-9---9-9-9-9--7-7-7-7--7-7-7-7-|
C# |----x--x--x--x----x--x--x--x--x-x-x-x---x-x-x-x--x-x-x-x---x-x-x-x--x-x-x-x--x-x-x-x-|
G# |---12-12-12-12---12-12-12-12--3-3-3-3---3-3-3-3--7-7-7-7---7-7-7-7--5-5-5-5--5-5-5-5-| 
C# |-------------------------------------------------------------------------------------|

d# |------------------------------------------------------------------------------|  
A# |------------------------------------------------------------------------------|
F# |---14-14-14-14---14-14-14-14--5-5-5-5---5-5-5-5--9-9-9-9---6-6-6-6--7-7-7-7-6-|
C# |----x--x--x--x----x--x--x--x--x-x-x-x---x-x-x-x--x-x-x-x---x-x-x-x--x-x-x-x-x-|
G# |---12-12-12-12---12-12-12-12--3-3-3-3---3-3-3-3--7-7-7-7---4-4-4-4--5-5-5-5-4-| 
C# |------------------------------------------------------------------------------|

d# |-------------------------------------------------------------------|  
A# |-----------------10------------------------------10----------------|
F# |--------10----10----10----10-------------10---10----10----10-------|
C# |--12-12----12----------12----12----10-10---10----------10-----10---|
G# |-------------------------------------------------------------------|
C# |-------------------------------------------------------------------|  

d# |-------------------------------------------------------------------|  
A# |---------------8--------------------------------10-----------------|
F# |--------9----9-----9----9--------------10----10----10----10--------|
C# |--10-10---10---------10---10-----12-12----12----------12----12-----|
G# |-------------------------------------------------------------------|
C# |-------------------------------------------------------------------| 

d# |-------------------------------------------------------------------|  
A# |-----------------10------------------------------10----------------|
F# |--------10----10----10----10-------------10---10----10----10-------|
C# |--12-12----12----------12----12----10-10---10----------10-----10---|
G# |-------------------------------------------------------------------|
C# |-------------------------------------------------------------------|

d# |-------------------------------------------------------------------|  
A# |---------------10--------------------------------------------------|
F# |--------9----9----9----9-----9/------------------------------------|
C# |--11-11---11--------11---11----------------------------------------|
G# |-------------------------------------------------------------------|
C# |-------------------------------------------------------------------| 


[Bridge] 
Gtr 1
d# |-----------------------------------------------------------------------------------|  
A# |-------7-------3-------7--------3--------7--------3--------------------------------|
F# |-------7---------------7-----------------7------------------10---------12----------|
C# |-----7-------5-------7--------5--------7--------5--------10---------12-------------|
G# |---5-----5/3--------5-----5/3--------5------5/3--------8-------8/10----------------|
C# |-----------------------------------------------------------------------------------|

Gtr 2
d# |-----------------------------------------------------------------------------------|  
A# |-----------------------------------------------------------------------------------|
F# |--7--7--7--5--5--5--7--7--7--5--5--5--7-7-7-7-7-7-5-5-5-5-5-5----------------------|
C# |--7--7--7--5--5--5--7--7--7--5--5--5--7-7-7-7-7-7-5-5-5-5-5-5--3-3-3---------------|
G# |--5--5--5--3--3--3--5--5--5--3--3--3--5-5-5-5-5-5-3-3-3-3-3-3--3-3-3---------------|
C# |---------------------------------------------------------------3-3-3---------------| 


Gtr 1
d# |-----------------------------------------------------------------------------------|  
A# |-----------------------------------------------------------------------------------|
F# |---14-14-14-12-12-12--10-10-10-10--12-12-12-12-12----6-6-6-6-6-6-6-6-7/------------|
C# |----x--x--x--x--x--x---x--x--x--x---x--x--x--x--x----x-x-x-x-x-x-x-x-x/------------|
G# |---12-12-12-10-10-10---8--8--8--8--10-10-10-10-10----4-4-4-4-4-4-4-4-5/------------|
C# |-----------------------------------------------------------------------------------| 


Gtr 2
d# |-----------------------------------------------------------------------------------|  
A# |-----------------------------------------------------------------------------------|
F# |---------------------------------------6-6-6-6-6-6-6-6-----------------------------|
C# |--3-3--3--3--5-5-5---3-3--3--3-5-5-5---6-6-6-6-6-6-6-6--8/-------------------------|
G# |--3-3--3--3--5-5-5---3-3--3--3-5-5-5---4-4-4-4-4-4-4-4--8/-------------------------|
C# |--3-3--3--3--5-5-5---3-3--3--3-5-5-5--------------------8/-------------------------| 


*Drum Fill*


[Chorus]
This last chorus has a few variations
Gtr 2
d# |--------------------------------------------|  
A# |--------------------------------------------|
F# |------5--5-5--5-5-5-5-----------------------|
C# |------5--5-5--5-5-5-5---0--0-0--0-0-0-------|
G# |------3--3-3--3-3-3-3---0--0-0--0-0-0-------|
C# |------------------------0--0-0--0-0-0-------| 


d# |---------------------------------------------------------------------------|  
A# |---------------------------------------------------------------------------|
F# |---------------------------------------------------------------------------|
C# |----8--8-8--8-8-8-8-3--3-3--3-3-3-3--7--7-7--7-7--7-7-7-7-7-7-7-7-7-7-7-7--|
G# |----8--8-8--8-8-8-8-3--3-3--3-3-3-3--7--7-7--7-7--7-7-7-7-7-7-7-7-7-7-7-7--|
C# |----8--8-8--8-8-8-8-3--3-3--3-3-3-3--7--7-7--7-7--7-7-7-7-7-7-7-7-7-7-7-7--|

d# |---------------------------------------------------------------------------|  
A# |---------------------------------------------------------------------------|
F# |-------------------------------------5--5-5--5-5-5-5-----------------------|
C# |----8--8-8--8-8-8-8-3--3-3--3-3-3-3--5--5-5--5-5-5-5---0--0-0--0-0-0-------|
G# |----8--8-8--8-8-8-8-3--3-3--3-3-3-3--3--3-3--3-3-3-3---0--0-0--0-0-0-------|
C# |----8--8-8--8-8-8-8-3--3-3--3-3-3-3--------------------0--0-0--0-0-0-------| 

d# |---------------------------------------------------------------------------|  
A# |---------------------------------------------------------------------------|
F# |---------------------------------------------------------------------------|
C# |----8--8-8--8-8-8-8-3--3-3--3-3-3-3--7--7-7--7-7--7-7-7-7-7-7-7-7-7-7-7-7--|
G# |----8--8-8--8-8-8-8-3--3-3--3-3-3-3--7--7-7--7-7--7-7-7-7-7-7-7-7-7-7-7-7--|
C# |----8--8-8--8-8-8-8-3--3-3--3-3-3-3--7--7-7--7-7--7-7-7-7-7-7-7-7-7-7-7-7--|

Gtr 2
d# |--------------------------------------------|  
A# |--------------------------------------------|
F# |------5-5-5-5--5-5-5-5--7-7-7-7--7-7-7-7----|
C# |------x-x-x-x--x-x-x-x--x-x-x-x--x-x-x-x----|
G# |------3-3-3-3--3-3-3-3--5-5-5-5--5-5-5-5----|
C# |--------------------------------------------| 

d# |------------------------------------------------------------------------------|  
A# |------------------------------------------------------------------------------|
F# |---14-14-14-14---14-14-14-14--5-5-5-5---5-5-5-5--9-9-9-9---6-6-6-6--7-7-7-7-6-|
C# |----x--x--x--x----x--x--x--x--x-x-x-x---x-x-x-x--x-x-x-x---x-x-x-x--x-x-x-x-x-|
G# |---12-12-12-12---12-12-12-12--3-3-3-3---3-3-3-3--7-7-7-7---4-4-4-4--5-5-5-5-4-| 
C# |------------------------------------------------------------------------------|

d# |-------------------------------------------------------------------|  
A# |-----------------10------------------------------10----------------|
F# |--------10----10----10----10-------------10---10----10----10-------|
C# |--12-12----12----------12----12----10-10---10----------10-----10---|
G# |-------------------------------------------------------------------|
C# |-------------------------------------------------------------------|  

d# |-------------------------------------------------------------------|  
A# |---------------8--------------------------------10-----------------|
F# |--------9----9-----9----9--------------10----10----10----10--------|
C# |--10-10---10---------10---10-----12-12----12----------12----12-----|
G# |-------------------------------------------------------------------|
C# |-------------------------------------------------------------------| 

d# |-------------------------------------------------------------------|  
A# |-----------------10------------------------------10----------------|
F# |--------10----10----10----10-------------10---10----10----10-------|
C# |--12-12----12----------12----12----10-10---10----------10-----10---|
G# |-------------------------------------------------------------------|
C# |-------------------------------------------------------------------|

d# |-------------------------------------------------------------------|  
A# |---------------10--------------------------------------------------|
F# |--------9----9----9----9-----9/------------------------------------|
C# |--11-11---11--------11---11----------------------------------------|
G# |-------------------------------------------------------------------|
C# |-------------------------------------------------------------------| 



[Outro]
Gtr 1
d# |-----------------------------------------------------------------------------------|  
A# |-------7-------3-------7--------3--------7--------3--------------------------------|
F# |-------7---------------7-----------------7------------------10---------12----------|
C# |-----7-------5-------7--------5--------7--------5--------10---------12-------------|
G# |---5-----5/3--------5-----5/3--------5------5/3--------8-------8/10----------------|
C# |-----------------------------------------------------------------------------------|

Gtr 2
d# |-----------------------------------------------------------------------------------|  
A# |-----------------------------------------------------------------------------------|
F# |------------5-5-5-----------5-5-5-----------5-5-5----------------------------------|
C# |---0--0--0--5-5-5--0--0--0--5-5-5--0--0--0--5-5-5--3-3--3--3--5-5-5----------------|
G# |---0--0--0--3-3-3--0--0--0--3-3-3--0--0--0--3-3-3--3-3--3--3--5-5-5----------------|
C# |---0--0--0---------0--0--0---------0--0--0---------3-3--3--3--5-5-5----------------| 2x



************************************

| /  Slide 
| x  Dead note

************************************
Suggest correction
Give kudos to tab author, rate the tab!
1 2 3 4 5
comments
print report bad tab
guest
You may want to rate the tab now too:
select rating
Wanna post a correction for this tab? Suggest correction