Oops, an error
Loading. Please wait.

Toxic Valentine Chords

version 1
version 1

Whole song

Interactive

12,678 views 3 this week
no commentswrite comment
1 2 3 4 5
x 7
add to favorites
launch autoscroll
font size
0
reset
transpose
0
reset
display chords
guitar tuner
Autoscroll
slow
fast
+/-
esc
set tempo
stop
Help us to improve Ultimate-Guitar.com Take our survey!
×
Author
intro (guitar 1): A  D  F  E G

intro (guitar 2): e------8-------------8-------------8--------7---7-8-7-|
                  b-10-------10---10-------10---10-------10-----9-------|
                  g----9---9----9----9---9----9----9---9----9-----------|
                  d-----------------------------------------------------|
                  a-----------------------------------------------------|
                  E-----------------------------------------------------|
Verse 1:

e-------------------------------------------|
b-------------------------------------------|
g-------------------------------------------|
d-7---------------7--7-7----------------7-7-|
a-7---------------7--7-8----------------8-8-|
E-5---------------5--5-5----------------5-5-|

   She's got a target painted on her back
e-----------------------------------------------|
b-----------------------------------------------|
g-----------------------------------------------|
d-7----------------7----7--7----------------7-7-|
a-9----------------9----9--8----------------8-8-|
E-5----------------5----5--5----------------5-5-|
   And keeps a list of the qualities a good girl lacks
e------------------------------------------|
b------------------------------------------|
g------------------------------------------|
d-7---------------7-7-7----------------7-7-|
a-7---------------7-7-8----------------8-8-|
E-5---------------5-5-5----------------5-5-|
   She bites her lip and tips her bottle
e------------------------------------------------------------|
b------------------------------------------------------------|
g------------------------------------------------------------|
d-7----------------7-----7---7-----------------7--7----3---5-|
a-9----------------9-----9---8-----------------8--8----3---5-|
E-5----------------5-----5---5-----------------5--5----1---3-|
   I take a drink 'cause the truth is hard to swallow, oh

Chorus:
   A      D
Sex and white lies
 G             D
Handcuffs and alibis
F                          G
 She lays her halo on the pillow as she sleeps
        A        D
Her heart beats red wine
G           D
 My toxic valentine
F                      G
 Lays her halo on the pillow that used to be mine

Intro:

Verse 2:
e---------------------------------------------|
b---------------------------------------------|
g---------------------------------------------|
d-7-------------7--7--7------------------7--7-|
a-7-------------7--7--8------------------8--8-|
E-5-------------5--5--5------------------5--5-|
   I live a lifestyle full of first impressions
e-----------------------------------------------|
b-----------------------------------------------|
g-----------------------------------------------|
d-7-----------------7-----7--7-------------7--7-|
a-9-----------------9-----9--8-------------8--8-|
E-5-----------------5-----5--5-------------5--5-|
   I've got my hands full of unhealthy obsessions
e-------------------------------------------|
b-------------------------------------------|
g-------------------------------------------|
d-7---------------7--7--7--------------7--7-|
a-7---------------7--7--8--------------8--8-|
E-5---------------5--5--5--------------5--5-|
   She bites my lip      I'm sure to follow
e--------------------------------------------------------|
b--------------------------------------------------------|
g--------------------------------------------------------|
d-7----------------7----7--7----------------7-7----3---5-|
a-9----------------9----9--8----------------8-8----3---5-|
E-5----------------5----5--5----------------5-5----1---3-|
   We take a drink to the guilty and the hollowed, oh, oh, oh, oh, oh

Chorus:

Intro: (2X)

Bridge:
Dm           G         C
I'm not the type to forget
       Am
Or to bury my head
       Dm           G
Just take off your wings
             C                      A           F
They could never get you quite as high as I did
          G
And you know it

Chorus:
   A      D
Sex and white lies
 G             D
Handcuffs and alibis
F                          G
 She lays her halo on the pillow as she sleeps
        A        D
Her heart beats red wine
G           D
 My toxic valentine
F                      G
 Lays her halo on the pillow that used to be
   A      D
Sex and white lies
 G             D
Handcuffs and alibis
F                          G
 She lays her halo on the pillow as she sleeps
        A        D
Her heart beats red wine
G           D
 My toxic valentine
F                      G
 Lays her halo on the pillow that used to be
F                          G                          A A A
 She lays her halo on the pillow that used to be mine
Suggest correction
comments
print report bad tab
guest
You may want to rate the tab now too:
select rating
Wanna post a correction for this tab? Suggest correction