Oops, an error
Loading. Please wait.

True Colors tab

version 1
version 1

Whole song

274 views 6 this week
no commentswrite comment
1 2 3 4 5
2 more votes to show rating
add to favorites
×
Save as Personal and add changes to this tab that will be seen only by you. Learn more ›
×
You can save this tab as Personal to edit and correct it or add notes. All changes will be seen only by you. Learn more »
launch autoscroll
font size
0
reset
how to read this tab
guitar tuner
edit
Autoscroll
slow
fast
+/-
esc
set tempo
stop
-----------------------------------------------------------------------------
                           TRUE COLORS - All Time Low
-----------------------------------------------------------------------------
Tuning: Drop D (DADGBe)

Guitar 1 - Jack Barakat
Guitar 2 - Alex Gaskarth

Link to my cover on YouTube!: https://www.youtube.com/watch?v=U14Xx1C5EQ8

[Intro/Verse]

Guitar 1
e|--------------------------------2x-|------------------------------------------------------------------|
B|-----------------------------------|--------------------------------------------------------------14~-|
G|-9-----9-9-----9-9-----------------|-----9-----11-----------14-----14--11-----14----13-11-9--11-14----|
D|---6-7-----6-7-----6-7-4~--4~--x-4-|-6-7--11-12--14-12-11-14--11-12--12--11-12--11-9-------12---------|
A|-----------------------------------|------------------------------------------------------------------|
D|-----------------------------------|------------------------------------------------------------------|

Guitar 2
e|------------------------------------------------|-----------------------------------------------|
B|------------------------------------------------|-----------------------------------------------|
G|------------------------------------------------|-----------------------------------------------|
D|------------------------------------------------|-----------------------------------------------|
A|------------------------------------------------|-----------------------------------------------|
D|-4~---/6~---/7~---/12~---\4~---\2~---/7~---\p0~-|-4~---/6~---/7~---/11~---/12~---12~--\4~---\2~-|

e|-------------------------------------------------------------------|
B|-------------------------------------------------------------------|
G|-------------------------------------------------------------------|
D|-------------------------------------------------------------------|
A|-------------------------------------------------------------------|
D|-7~---/9~---/11~---/12~---\4~---\2~---\p0~---/7~-----------19\-----|

[Chorus]

 Guitar 1
e|-----5-----5------------------------5-----5-----5-----5------------------------------------------------|
B|-------------------------------------------------------------------------14h15~-14~---14h15~-----------|
G|---6-----6----13/14~-13-13~-------6-----6-----6-----6---/16~-16-16~---14~-----------14--------16~--14~-|
D|-7-----7------------------------7-----7-----7-----7----------------------------------------------------|
A|--------------11/12~-11-11~-----------------------------/14~-14-14~---------------------------14~--12~-|
D|-------------------------------------------------------------------------------------------------------|

e|---------------------------------0~----4~\------------------------------|
B|-----2~--------2~----------------0~----5~\------------------------------|
G|-7~--2~----7~--2~-----7~--2~-----1~----4~\------------------------------|
D|-----2~--------2~---------2~-----2~-------------------------------------|
A|-5~--0~----5~--0~-----5~--0~--------------------------------------------|
D|-0~--------0~---------0~------------------------------------------------|

Guitar 2
e|-----------------|------------------------------------------------1.-|--------------2.-||
B|-----------------|---------------------------------------------------|-----------------||
G|-----------------|-----------------------------------7---------------|-----------------||
D|-0-----7---------|-2-----------------0-----7---------7-7-7-2---------|-----------------||
A|-0-0-0-7-7-7-7-7-|-2-2-2-2-2-2-222-2-0-0-0-7-7-7-7-7-5-5-5-2-2-22222-|-7-7-7-4-4-4-4-4-||
D|-0-0-0-7-7-7-7-7-|-2-2-2-2-2-2-222-2-0-0-0-7-7-7-7-7-------2-2-22222-|-6-6-6-4-4-4-4-4-||
     * *   * * * *     * * * * * *** *   * *   * * * *         * *****   * * * * * * * *
e|-------------------------------------------------------------------|
B|-------------------------------------------------------------------|
G|-----2~---------2~---------2~--------------------------------------|
D|-0~--2~-----0~--2~-----0~--2~-----2~----2~\------------------------|
A|-0~--0~-----0~--0~-----0~--0~-----2~----2~\------------------------|
D|-0~---------0~---------0~---------2~----2~\------------------------|

[Preverse]

Guitar 1
e|----------------------------------------------------------------------------------------|
B|-17\-9-10-171717-9-10-171717-9-10-7~--77~-7777-17\-9-10-171717-9-10-171717-9-10~-10~----|
G|---------------------------------------------------------------------------------9~-----|
D|-14\-6-7--141414-6-7--141414-6-7--4~--44~-4444-14\-6-7--141414-6-7--141414-6-7~--7~-----|
A|---------------------------------------------------------------------------------0~-----|
D|----------------------------------------------------------------------------------------|

Guitar 2
e|-------------------------------------------------------------------|
B|-------------------------------------------------------------------|
G|-------------------------------------------------------------------|
D|-4-4-4-6-6-6-6-7-7-7-0---------------------------------------------|
A|-4-4-4-7-7-7-7-7-7-7-0--x8-4-4-4-2-2-2-2-0-0-0-7~------------------|
D|-4-4-4-6-6-6-6-7-7-7-0-----4-4-4-2-2-2-2-0-0-0-7~------------------|

[Verse 2]

Guitar 1 - starts at the & symbol in guitar 2
e|----------------------------------------------------------------------------------------------------------|
B|--------------------7-----7---7-----10----10--10----10----10-------10-14--10-14--10--9-12--9-12--12-------|
G|--6-9---6-9---9-6-9---6-9---6---9-11--9-11--11--9-11--9-11--9-11-11-----11-----11--11----11----11---------|
D|7-----7-----7--------------------------------------------------------------------------------------12~-11-|
A|----------------------------------------------------------------------------------------------------------|
D|----------------------------------------------------------------------------------------------------------|

Guitar 2
e|---------------------------------------------------------------------&-----------------------------|
B|---------------------------------------------------------------------------------------------------|
G|---------------------------------------------------------------------------------------------------|
D|-4-------6----7-------11---0--------0---4-------2---\\\--------------------------------------------|
A|-4--4-4--7----7--7-7--12---0--0-0---0---4--4-4--2---\\\-(pickscrape)-7~-------------9~-------------|
D|-4--4-4--6----7--7-7--11---0--0-0---0---4--4-4--2---\\\--------------7~-7-7-7-7-7-7-9~-9-9-9-9-9-9-|
      * *          * *          * *          * *                          * * * * * *    * * * * * *
e|--------------------------------------------------------------------------------------|
B|--------------------------------------------------------------------------------------|
G|---------------------------------------------11~------------9~------------------------|
D|---------------------------------------------11~------------9~-------------0~-------7-|
A|-12~-------------------12~-------------------9--9-9-9-9-9-9-7~-7-7-7-7-7-7-0~-------7-|
D|-11~-11-11-11-11-11-11-12~-12-12-12-12-12-12-------------------------------0~-------7-|
       *  *  *  *  *  *      *  *  *  *  *  *     * * * * * *    * * * * * *
E|----------------------------------------------------------------------------------------|---------|------|
B|----------------------------------------------------------------------------------------|-----3x--|---2x-|
G|----------------------------------------------------------------------------------------|---------|------|
D|-0-0-0-0-7-7-7-7-2-----0-0-0-0-7-7-7-7-0-0-0-0-2-2-2-2-0-0-0-0-7-7-7-7-6-6-6-6-4~-4-4-4-|-0~--7~--|-2~---|
A|-0-0-0-0-7-7-7-7-2--x8-0-0-0-0-7-7-7-7-0-0-0-0-2-2-2-2-0-0-0-0-7-7-7-7-7-7-7-7-4~-4-4-4-|-0~--7~--|-2~---|
D|-0-0-0-0-7-7-7-7-2-----0-0-0-0-7-7-7-7-0-0-0-0-2-2-2-2-0-0-0-0-7-7-7-7-6-6-6-6-4~-4-4-4-|-0~--7~--|-2~---|

Guitar 2 (may be a bit off)
e|----------------------------------------------7-9~---7-9~-----------------------------|
B|--------------------------------------------7------7----------------------------------|
G|-14-----13-----14------16---------7~---7-9~---------------16-16-16~--14~--14-14-14~---|
D|-----x8-----x8-----x10-----x6-7-9----7------------------------------------------------|
A|-12-----11-----12------14---------------------------------14-14-14~--12~--12-12-12~---|
D|--------------------------------------------------------------------------------------|

e|-----------------------|-0~---4~----------------------------------------|
B|-----7-10~-----7-10~---|-0~---5~----------------------------------------|
G|-7-9-------7-9---------|-1~---4~----------------------------------------|
D|-----------------------|-2~---------------------------------------------|
A|-----------------------|------------------------------------------------|
D|--------------------3x-|------------------------------------------------|
   * *       * *
[Re-Intro/Bridge]

Guitar 1
e|-----------------------|----------1.-|-----2.-||--------------------------------------------------|
B|-----------------------|-------------|--------||--------------------------------------------------|
G|-9-----9-9-----9-9-----|-------------|-7~-----||-14-----13-----14-----9-----11-----14------13-----|
D|---6-7-----6-7-----6-7-|-4~--4~--x-4-|--------||-----x8-----x8-----x8----x8-----x8-----x16-----x8-|
A|-----------------------|-------------|--------||-12-----11-----12-----7-----9------12------11-----|
D|-----------------------|-------------|--------||--------------------------------------------------|

e|-------------------------------------------------------------------|
B|-------------7-----7-10-7~-----10-14---12---10-12-10~--------------|
G|-----9-----9---7-9-----------11------9----7-------------14~\-------|
D|-6-7---6-7---------------------------------------------------------|
A|--------------------------------------------------------12~\-------|
D|-------------------------------------------------------------------|

Guitar 2 
e|--------------------------------------------------|-----------------------------------------------|
B|--------------------------------------------------|-----------------------------------------------|
G|--------------------------------------------------|-----------------------------------------------|
D|--------------------------------------------------|-----------------------------------------------|
A|-------------------------4-4-4-4-2-2-2-2-7-7-7-0~-|-4~-4-4-4-4-7----7~-7-7-7-7-12---0~-0-0-0-0-0--|
D|-4~---/6~---/7~---/12~---4~4-4-4-2-2-2-2-7-7-7-0~-|-4~-4-4-4-4-6----7~-7-7-7-7-11---0~-0-0-0-0-0--|
                             * *     * *     * *         * * * *         * * * *         * * * * *    
e|--------------------------------------------------|-----------------------------------------------|
B|--------------------------------------------------------------------------------------------------|
G|-------------------------------------------------------------------11~--------9~---------7~-------|
D|-------------------------------------------------------------------11~--------9~---------7~-----7-|
A|-4~-4-4-4-4-2~---7~-7-7-7-7-7~-9~-9-9-9-9-9~-12~-12-12-12-12-0~----9--9-9-9-9-7~-7-7-7-7-5~-----7-|
D|-4~-4-4-4-4-2~---7~-7-7-7-7-7~-9~-9-9-9-9-9~-11~-11-11-11-11-0~--------------------------0~-----7-|
      * * * * 
[Final Chorus] (2:20)

Guitar 1
e|----------------------------------------------------------------------------------------|-----3x-|----|
B|----------------------------------------------------------------------------------------|--------|----|
G|----------------------------------------------------------------------------------------|--------|----|
D|-0-0-0-0-7-7-7-7-2-----0-0-0-0-7-7-7-7-0-0-0-0-2-2-2-2-0-0-0-0-7-7-7-7-6-6-6-6-4~-4-4-4-|-0~--7~-|-2~-|
A|-0-0-0-0-7-7-7-7-2--x8-0-0-0-0-7-7-7-7-0-0-0-0-2-2-2-2-0-0-0-0-7-7-7-7-7-7-7-7-4~-4-4-4-|-0~--7~-|-2~-|
D|-0-0-0-0-7-7-7-7-2-----0-0-0-0-7-7-7-7-0-0-0-0-2-2-2-2-0-0-0-0-7-7-7-7-6-6-6-6-4~-4-4-4-|-0~--7~-|-2~-|

e|-------------------------------------------------------------|-------------2x-|----------------------|
B|-------------------------------------------------------------|----------------|----------------------|
G|-------------------------------------------------------------|-7-7-7----------|----------------------|
D|--------0-0-0-0-7-7-7-7-0-0-0-0-2-2-2-2-0-0-0-7~--6-6~--4~-\-|-7-7-7-7~-7-7-7-|-0~--7~--2~--2\---7~\-|
A|-2--x16-0-0-0-0-7-7-7-7-0-0-0-0-2-2-2-2-0-0-0-7~--7-7~--4~-\-|-5-5-5-7~-7-7-7-|-0~--7~--2~--2\---7~\-|
D|-2------0-0-0-0-7-7-7-7-0-0-0-0-2-2-2-2-0-0-0-7~--6-6~--4~-\-|-------7~-7-7-7-|-0~--7~--2~--2\---7~\-|
   *
Guitar 2
e|----------------------------------------------7-9~---7-9~--------------------------|---------------------|
B|--------------------------------------------7------7-------------------------------|-----7-10~-----7-10~-|
G|-14-----13-----14------16---------7~---7-9~--------------16-16-16~--14~--14-14-14~-|-7-9-------7-9-------|
D|-----x8-----x8-----x10-----x6-7-9----7---------------------------------------------|---------------------|
A|-12-----11-----12------14--------------------------------14-14-14~--12~--12-12-12~-|---------------------|
D|-----------------------------------------------------------------------------------|------------------3x-|
                                                                                       * *       * *
e|-0~------|14-10-|---10-14-10-|---10-12-10-|--9-10-9-|---10-12-10-|---10-14-10-|---10-12-10-|---9-10-9-|---|
B|-0~------|------|-10---------|-10---------|---------|------------|-10---------|-10---------|-9--------|-9-|
G|-1~------|------|------------|------------|11-------|-9----------|------------|------------|----------|---|
D|-2~--\\\-|------|------------|------------|---------|------------|------------|------------|----------|---|
A|-----\\\-|------|------------|------------|---------|------------|------------|------------|----------|---|
D|-----\\\-|------|---------2x-|---------2x-|------2x-|---------2x-|---------2x-|---------2x-|-------2x-|---|

e|--------------------------------------------------------------------------|
B|--------------------------------------------------------------------------|
G|-14-----16/18~--18~--14-----12\9~--9~---14~---9~--------13~\-----14~\-----|
D|-----x7------------------x7-----------------------------------------------|
A|-12-----14/16~-------12-----10\7~-------12~---7~--------11~\-----12~\-----|
D|--------------------------------------------------------------------------|

************************************

| x  Dead note
| ~  Vibrato
| /  Slide up
| \  Slide down
| h  Hammer-on
| *  Natural harmonic

************************************
Suggest correction
Creating personal tab
Creating personal tab
You can edit any tab online and save it as your Personal.

You can edit, replace or remove any tab part or add personal notes – all changes will be seen only by you.

Personal tabs can be accessed anytime from any device, even offline.
Learn more »
Give kudos to tab author, rate the tab!
1 2 3 4 5
comments
print report bad tab
guest
You may want to rate the tab now too:
select rating
Wanna post a correction for this tab? Suggest correction