Oops, an error
Loading. Please wait.

Umbrella bass

version 1
version 1

Whole song

Interactive

32,263 views 3 this week
6 commentsread comments
1 2 3 4 5
x 20
add to favorites
×
Save as Personal and add changes to this tab that will be seen only by you. Learn more ›
×
You can save this tab as Personal to edit and correct it or add notes. All changes will be seen only by you. Learn more »
launch autoscroll
font size
0
reset
guitar tuner
edit
Autoscroll
slow
fast
+/-
esc
set tempo
stop
Difficulty
I came up with this by ear pretty easy for my first tab so enjoy!


"You had my heart.."

G-------------------------------------------------------------------|
D-------------------------------------------------------------------
A-------------------------------------------------------------------|
E-2222222222222222-4444444444444444-111111111111111-6666666-4444444-|

"Baby Cause in the dark.."
G-------------------------------------------------------------------|
D-------------------------------------------------------------------|
A-------------------------------------------------------------------|
E-2222222222222222-4444444444444444-111111111111111-6666666-4444444-|

CHORUS
"Because when the sun shines.."
G------------------------------------------------------------------------|
D------------------------------------------------------------------------|
A------------------4444444444444444--------------------------------------|
E-2222222222222222------------------444444444444444444-66666666-44444444-|

"Now that it's raining more then ever..."
G---------------------------------------------------------------------|
D---------------------------------------------------------------------|
A-----------------4444444444444444------------------------------------|
E-222222222222222------------------1111111111111111-66666666-44444444-|

"Ella-ella aye, aye"
(Play twice)

G---------------------------------|
D---------------------------------|
A---------4-4-4-4-----------------|
E-2-2-2-2---------1-1-1-1-6-6-6-6-|

"These fancy things.."

G-------------------------------------------------------------------|
D-------------------------------------------------------------------|
A-------------------------------------------------------------------|
E-2222222222222222-4444444444444444-111111111111111-6666666-4444444-|

"When the war has took it's part.."


G-------------------------------------------------------------------|
D-------------------------------------------------------------------|
A-------------------------------------------------------------------|
E-2222222222222222-4444444444444444-111111111111111-6666666-4444444-|

"Because when the sun shines.."
G------------------------------------------------------------------------|
D------------------------------------------------------------------------|
A------------------4444444444444444--------------------------------------|
E-2222222222222222------------------444444444444444444-66666666-44444444-|

"Now that it's raining more then ever..."

G---------------------------------------------------------------------|
D---------------------------------------------------------------------|
A-----------------4444444444444444------------------------------------|
E-222222222222222------------------1111111111111111-66666666-44444444-|

"Ella-ella aye, aye"
(Play twice)

G---------------------------------|
D---------------------------------|
A---------4-4-4-4-----------------|
E-2-2-2-2---------1-1-1-1-6-6-6-6-|

"You can run into my arms.."

G-----------------|
D-----------------|
A-2~~-----4~~-----|
E-----2~~-----4~~-|

"Gunna let the rain fall.."

G--------------------------|
D--------------------------|
A-2~~----------------------|
E-----2~~-1111111111111111-|

"Because when the sun shines.."

G------------------------------------------------------------------------|
D------------------------------------------------------------------------|
A------------------4444444444444444--------------------------------------|
E-2222222222222222------------------444444444444444444-66666666-44444444-|

"Now that it's raining more then ever..."

G---------------------------------------------------------------------|
D---------------------------------------------------------------------|
A-----------------4444444444444444------------------------------------|
E-222222222222222------------------1111111111111111-66666666-44444444-|

"Ella Ella Aye Aye..."

G---------------------------------------------------------------------|
D---------------------------------------------------------------------|
A-----------------4444444444444444------------------------------------|
E-222222222222222------------------1111111111111111-66666666-44444444-|

That's it so let me know how you liked it!
Suggest correction
Creating personal tab
Creating personal tab
You can edit any tab online and save it as your Personal.

You can edit, replace or remove any tab part or add personal notes – all changes will be seen only by you.

Personal tabs can be accessed anytime from any device, even offline.
Learn more »
comments
print report bad tab
6 comments total. Showing first comments.
0 reply
CrashingSuccess 10 Feb 21, 2009 07:01 PM

There is a slide around the second chorus but overall great tab! Good job!

0 reply
roadtodamascus2 10 Jul 22, 2009 02:34 PM

I was just wondering if this is in drop D tuning?

0 reply
Drummerboy090 10 Nov 04, 2009 06:47 PM

Great...sounds pretty spot on! i love it!

guest
Wanna post a correction for this tab? Suggest correction