Oops, an error
Loading. Please wait.

Umbrella Tab

version 1
version 1

Whole song

Interactive

183,349 views 45 this week
12 commentsread comments
1 2 3 4 5
excellent!
x 40
add to favorites
launch autoscroll
font size
0
reset
how to read this tab
guitar tuner
Autoscroll
slow
fast
+/-
esc
set tempo
stop
Help us to improve Ultimate-Guitar.com Take our survey!
×
Well I came across this ona  girls myspace today and freaked, i literally couldnt get 
it. i had to learn the guitar and decided to share the basic rythem with you all. this is 
first tab in a long time. i've been working with my band on music. check us out

www.myspace.com/alwaysfallingmusic

"You had my heart.."
(Palm Muted)
E-------------------------------------------------------------------|
B-------------------------------------------------------------------|
G-------------------------------------------------------------------|
D-4444444444444444-6666666666666666-333333333333333-8888888-6666666-|
A-4444444444444444-6666666666666666-333333333333333-8888888-6666666-|
E-2222222222222222-4444444444444444-111111111111111-6666666-4444444-|
"Baby Cause in the dark.."
(Palm Mute)
E-------------------------------------------------------------------|
B-------------------------------------------------------------------|
G-------------------------------------------------------------------|
D-4444444444444444-6666666666666666-333333333333333-8888888-6666666-|
A-4444444444444444-6666666666666666-333333333333333-8888888-6666666-|
E-2222222222222222-4444444444444444-111111111111111-6666666-4444444-|

CHORUS
"Because when the sun shines.."
E------------------------------------------------------------------------|
B------------------------------------------------------------------------|
G------------------6666666666666666--------------------------------------|
D-4444444444444444-6666666666666666-666666666666666666-88888888-66666666-|
A-4444444444444444-4444444444444444-666666666666666666-88888888-66666666-|
E-2222222222222222------------------444444444444444444-66666666-44444444-|

"Now that it's raining more then ever..."
E---------------------------------------------------------------------|
B---------------------------------------------------------------------|
G-----------------6666666666666666------------------------------------|
D-444444444444444-6666666666666666-3333333333333333-88888888-66666666-|
A-444444444444444-4444444444444444-3333333333333333-88888888-66666666-|
E-222222222222222------------------1111111111111111-66666666-44444444-|

"Ella-ella aye, aye"
(Play twice)
E---------------------------------|
B---------------------------------|
G---------6-6-6-6-----------------|
D-4-4-4-4-6-6-6-6-3-3-3-3-8-8-8-8-|
A-4-4-4-4-4-4-4-4-3-3-3-3-8-8-8-8-|
E-2-2-2-2---------1-1-1-1-6-6-6-6-|

"These fancy things.."
(Palm mute)
E-------------------------------------------------------------------|
B-------------------------------------------------------------------|
G-------------------------------------------------------------------|
D-4444444444444444-6666666666666666-333333333333333-8888888-6666666-|
A-4444444444444444-6666666666666666-333333333333333-8888888-6666666-|
E-2222222222222222-4444444444444444-111111111111111-6666666-4444444-|

"When the war has took it's part.."
(Palm Mute)
E-------------------------------------------------------------------|
B-------------------------------------------------------------------|
G-------------------------------------------------------------------|
D-4444444444444444-6666666666666666-333333333333333-8888888-6666666-|
A-4444444444444444-6666666666666666-333333333333333-8888888-6666666-|
E-2222222222222222-4444444444444444-111111111111111-6666666-4444444-|

"Because when the sun shines.."
E------------------------------------------------------------------------|
B------------------------------------------------------------------------|
G------------------6666666666666666--------------------------------------|
D-4444444444444444-6666666666666666-666666666666666666-88888888-66666666-|
A-4444444444444444-4444444444444444-666666666666666666-88888888-66666666-|
E-2222222222222222------------------444444444444444444-66666666-44444444-|

"Now that it's raining more then ever..."
E---------------------------------------------------------------------|
B---------------------------------------------------------------------|
G-----------------6666666666666666------------------------------------|
D-444444444444444-6666666666666666-3333333333333333-88888888-66666666-|
A-444444444444444-4444444444444444-3333333333333333-88888888-66666666-|
E-222222222222222------------------1111111111111111-66666666-44444444-|

"Ella-ella aye, aye"
(Play twice)
E---------------------------------|
B---------------------------------|
G---------6-6-6-6-----------------|
D-4-4-4-4-6-6-6-6-3-3-3-3-8-8-8-8-|
A-4-4-4-4-4-4-4-4-3-3-3-3-8-8-8-8-|
E-2-2-2-2---------1-1-1-1-6-6-6-6-|

"You can run into my arms.."
E-----------------|
B-----------------|
G-4~~-----6~~-----|
D-4~~-4~~-6~~-6~~-|
A-2~~-4~~-4~~-6~~-|
E-----2~~-----4~~-|

"Gunna let the rain fall.."
E--------------------------|
B--------------------------|
G-4~~----------------------|
D-4~~-4~~-3333333333333333-|
A-2~~-4~~-3333333333333333-|
E-----2~~-1111111111111111-|

"Because when the sun shines.."
E------------------------------------------------------------------------|
B------------------------------------------------------------------------|
G------------------6666666666666666--------------------------------------|
D-4444444444444444-6666666666666666-666666666666666666-88888888-66666666-|
A-4444444444444444-4444444444444444-666666666666666666-88888888-66666666-|
E-2222222222222222------------------444444444444444444-66666666-44444444-|

"Now that it's raining more then ever..."
E---------------------------------------------------------------------|
B---------------------------------------------------------------------|
G-----------------6666666666666666------------------------------------|
D-444444444444444-6666666666666666-3333333333333333-88888888-66666666-|
A-444444444444444-4444444444444444-3333333333333333-88888888-66666666-|
E-222222222222222------------------1111111111111111-66666666-44444444-|

"Ella Ella Aye Aye..."
E---------------------------------------------------------------------|
B---------------------------------------------------------------------|
G-----------------6666666666666666------------------------------------|
D-444444444444444-6666666666666666-3333333333333333-88888888-66666666-|
A-444444444444444-4444444444444444-3333333333333333-88888888-66666666-|
E-222222222222222------------------1111111111111111-66666666-44444444-|

Play until song ends and end on A sharp or in easy terms
                                                         D-8
                                                         A-8
                                                         E-6

Thats it! the whole song basically repeats, its SOOO fun to play though. Any questions? 
me at Always-Falling@hotmail.com
Suggest correction
comments
print report bad tab
12 comments total. Showing first comments.
+2 reply
DrummingManiac1 10 wrote on April 30 2008, 11:58 am

This could be played in drop D easier.

Goot tab though. Pretty fun to play. And easy.

0 reply
brokenunder 364 wrote on May 14 2008, 08:30 am

good tab dude :)

do you think you could tab the lead guitar to it tho pls?

-2 reply
bramvd 10 wrote on July 13 2008, 09:30 am

thx dude and i love power chords:D droped d stinks!

guest
You may want to rate the tab now too:
select rating
Wanna post a correction for this tab? Suggest correction