Oops, an error
Loading. Please wait.

Umbrella Tab

version 2
version 2

Whole song

Interactive

25,379 views 3 this week
2 commentsread comments
1 2 3 4 5
excellent!
x 5
add to favorites
launch autoscroll
font size
0
reset
how to read this tab
guitar tuner
Autoscroll
slow
fast
+/-
esc
set tempo
stop
Help us to improve Ultimate-Guitar.com Take our survey!
×
Difficulty
intermediate
hey. so this is my first tab.i only use 2 strings for my power chords so you can add the 
string if you want to.
if you have any questions, just leave a comment.
ive played it many times with the song and its perfect~!!


Order:
Verse
Chorus+ ella eh eh eh
Verse
Chorus+ ella eh eh eh
Bridge
Chorus + Ella eh eh eh (use these notes for ITS RAINING also)
then to END

Verses (1 + 2)
E-------------------------------------------------------------------|
B-------------------------------------------------------------------|
G-------------------------------------------------------------------|
D-------------------------------------------------------------------|
A-4 x16---6-x16---3-x16---8-x8---6-x8-------------------------------|
E-2------ 4-------1-------6------4----------------------------------|

E-------------------------------------------------------------------|
B-------------------------------------------------------------------|
G------------------------3-----5-----6------------------------------|
D--------------------------x4----x4----x4---------------------------|
A-4-x16---6-x16---3-x16--1-----3-----4-----3-x4---------------------|
E-2-------4-------1------------------------1------------------------|

CHORUS
"Because when the sun shines..(for last chorus play double the amount marked)
E------------------------------------------------------------------------|
B------------------------------------------------------------------------|
G------------------------------------------------------------------------|
D------6-x8--------------------------------------------------------------|
A-4 x8-4----6-x8---8-x4-6-x4---------------------------------------------|
E-2---------4------6----4------------------------------------------------|

E---------------------------------------------------------------------|
B---------------------------------------------------------------------|
G---------------------------------------------------------------------|
D-------6-x8----------------------------------------------------------|
A-4-x8--4-----3-x8---8-x4--6-x4---------------------------------------|
E-2-----------1------6-----4------------------------------------------|

ella-ella eh, eh"
(Play twice)
E---------------------------------|
B---------------------------------|
G---------------------------------|
D---------6-6-6-6-----------------|
A-4-4-4-4-4-4-4-4-3-3-3-3-8-8-8-6-|
E-2-2-2-2---------1-1-1-1-6-6-6-4-|

Bridge
"You can run into my arms.."
E-----------------|
B-4---2---6---4---|
G-4~~-3---6~~-5---|
D-4~~-4~~-6~~-6~~-|
A-2~~-4~~-4~~-6~~-|
E-----2~~-----4~~-| Listen for time to change chords.

"Let the rain fall.."
E---------------------------|
B------2---1----------------|
G-3-4--3---2----------------|
D---4--4---3--x32-----------|
A-1-4--4---3----------------|
E---2--2---1----------------|

END
E------|
B------|
G------|
D------|
A-3(hold)| then to
E-1----|


E-1---|
B-2---|
G-3---|
D-3---|
A-1---|
E-1---|
Suggest correction
comments
print report bad tab
2 comments total.
0 reply
kenvy 170 wrote on November 27 2009, 07:01 pm

The x16 and x8 looks like muted strums and notes, but theyre not.....Thats why i don't like "lazy tabs"

0 reply
cairby 20 wrote on July 29 2010, 08:37 pm

Difficulty: Intermediate??

guest
You may want to rate the tab now too:
select rating
Wanna post a correction for this tab? Suggest correction