Oops, an error
Loading. Please wait.

Vegas Bass Tab

version 1
version 1

Whole song

Interactive

6,280 views 1 this week
no commentswrite comment
1 2 3 4 5
excellent!
x 6
add to favorites
launch autoscroll
font size
0
reset
guitar tuner
Tab Pro tools
  • play this tab
  • loop segment
  • change instrument
  • show fretboard
  • metronome
×
Best way to learn
"Vegas"
Autoscroll
slow
fast
+/-
esc
set tempo
stop
Contributor
This is a fun song to play, just kinda hard to memorize. I love this song and HAD to tab it.

"Tonight we lie awake..."
(No bass)

"Another seven days..."
G--------------------------------------|
D--------------------------------------|
A-------------------333333333333333333-|
E-333333333333333333-------------------|

"I'm sure as hell this is the happiest.."
G-------------|
D-------------|
A------0~~~~~-|
E-0~~~~-------|

Chorus
"We can't hide we let go..."
G-------------------------------------------------|
D-------------------------------------------------|
A----------------------33333333333----------55555-|
E-3333333333-5555555555-----------0000000000------|

"There's a ghost in this room.."
G--------------------------------------------------------|
D--------------------------------------------------------|
A---------------33333333333333------000000-333333-555555-|
E-33333333333333--------------000000---------------------|

"Now make a change..."
G--------------------------|
D--------------------------|
A-00000-22222-33333-555555-|
E--------------------------|

"I'm falling more in love..."
G--------------------------|
D--------------------------|
A-00000-22222-33333-555555-|
E--------------------------|

"We can't hide we let go..."
G---------------------------------------------------|
D---------------------------------------------------|
A----------------------33333333333----------555-555-|
E-3333333333-5555555555-----------0000000000--------|

"Make this last take it slow.."
G---------------------------------------------------|
D---------------------------------------------------|
A----------------------33333333333----------555-555-|
E-3333333333-5555555555-----------0000000000--------|

"Tonight we lie awake.."
(No bass)

"From coast to coast..."
G-----------------------------------------------------|
D-----------------------------------------------------|
A---------------------------3-3-3-3-3-3-3-3-3-3-3-3-3-|
E-3-3-3-3-3-3-3-3-3-3-3-3-3---------------------------|

"I would've married you in vegas.."
G-----------------------------------------------|
D-----------------------------------------------|
A------------------------3333333333333333333333-|
E-33333333333333333333333-----------------------|X2

"Be any more obvious could you.."
G--------------|
D--------------|
A-3~~5~~-------|
E-------3~~~~~-|

Great song. Very catchy and fun to just let lose and rock out to. These are pretty much 
and easy to understand. Any questions? E-mail me at Alwaysfalling01@hotmail.com
comments
print report bad tab
I want to post or [tab]
guest
You may want to rate the tab now too:
select rating
Please do not post tabs as comments. Select "correction" instead!