Oops, an error
Loading. Please wait.
We have an official Weightless tab made by UG professional guitarists. Check out the tab »
×
44,662 views 21 this week
5 commentsread comments
1 2 3 4 5
x 19
add to favorites
×
Save as Personal and add changes to this tab that will be seen only by you. Learn more ›
×
You can save this tab as Personal to edit and correct it or add notes. All changes will be seen only by you. Learn more »
launch autoscroll
font size
0
reset
guitar tuner
backing track
0:00
0:00
edit
Autoscroll
slow
fast
+/-
esc
set tempo
stop
Author
-------------------------------------------------------------------------------
                             WEIGHTLESS - All Time Low
-------------------------------------------------------------------------------

Tabbed By : intothe

Tuning: Drop D


Verse: 0:00-0:22
No bass

G|---------------------------------------------------------------------------|
D|---------------------------------------------------------------------------|
A|---------------------------------------------------------------------------|
D|---------------------------------------------------------------------------|



Verse: 00:23-0:43

G|---------------------------------------------------------------------------|
D|---------------------------------------------------------------------------|
A|---------------------------------------------------------------------------|
D|------55-----------------------------------------00------------------------|

G|---------------------------------------------------------------------------|
D|---------------------------------------------------------------------------|
A|---------------------------------------------------------------------------|
D|------5555--------------------------------0000000000000000000000000--------|



Chorus: 0:43-1:03

G|---------------------------------------------------------------------------|
D|---------------------------------------------------------------------------|
A|---------------------------0--0000000--0--2--5-----------------------------|
D|-------5--55555550--0000000-----------------------4------------------------|

 Those are 12's---------------------------------v
|----------------------------------------------------------------------------|
D|---------------------------------------------------------------------------|
A|----------------------------0--0000000-1212121212121212--------------------|
D|-------5--55555550--0000000------------------------------------------------|

G|---------------------------------------------------------------------------|
D|---------------------------------------------------------------------------|
A|----55555555444444422222222------------------------------------------------|
D|----------------------------00000000-55555555-7\---------------------------|



Post-chorus: 1:03-1:08

G|---------------------------------------------------------------------------|
D|---------------------------------------------------------------------------|
A|---------------------------------------------------------------------------|
D|--0--00-00--0-0-00-00---7\-------------------------------------------------|



Verse2: 1:08-1:30
No bass

G|---------------------------------------------------------------------------|
D|---------------------------------------------------------------------------|
A|---------------------------------------------------------------------------|
D|---------------------------------------------------------------------------|



Verse2: 1:30-1:40
Still 12's----------------------------------------------------------v
G|---------------------------------------------------------------------------|
D|---------------------------------------------------------------------------|
A|---------------------------------------------------------------------------|
D|--5555555555555555-7777777777777777-000000000000000000000000012121212121212|



Chorus2: 1:40-1:58

G|---------------------------------------------------------------------------|
D|---------------------------------------------------------------------------|
A|---------------------------0--0000000--0--2--5-----------------------------|
D|-------5--55555550--0000000-----------------------4------------------------|

 Those are 12's---------------------------------v
|----------------------------------------------------------------------------|
D|---------------------------------------------------------------------------|
A|----------------------------0--0000000-1212121212121212--------------------|
D|-------5--55555550--0000000------------------------------------------------|

G|---------------------------------------------------------------------------|
D|---------------------------------------------------------------------------|
A|----55555555444444422222222------------------------------------------------|
D|----------------------------00000000-55555555-7\---------------------------|



Post-chorus2: 1:59-2:09

G|---------------------------------------------------------------------------|
D|---------------------------------------------------------------------------|
A|---------------------------------------------------------------------------|
D|--0--00-00--0-0-00-00---7--------0--00-00--0-0-00-00---7\------------------|



Bridge: 2:09-2:30

14's--------------v       not 100% on this fill -v
G|---------------------------------------------------------------------------|
D|--------------------------------------7-----5------------------------------|
A|------------------------------------7---7-5---7-5--------------------------|
D|--222222221414141414141414-55555555---------------7-0--00-00--0-0-00-00----|

14's--------------v       once again, 12s and a few more than I wrote---v
G|---------------------------------------------------------------------------|
D|---------------------------------------------------------------------------|
A|---------------------------------------------------------121212121212121212|
D|--22222222141414141414141455555555555555557777777777777777-----------------|



Chorus3/quite: 2:31-2:43

G|---------------------------------------------------------------------------|
D|---------------------------------------------------------------------------|
A|-----------------------------------------------------------------/12-------|
D|--0---------------------2-----------------------5--------------------------|



Chorus3/louder again: 2:44-3:02

G|---------------------------------------------------------------------------|
D|---------------------------------------------------------------------------|
A|---------------------------0--0000000--0--2--5-----------------------------|
D|-------5--55555550--0000000-----------------------4------------------------|

 Those are 12's---------------------------------v
|----------------------------------------------------------------------------|
D|---------------------------------------------------------------------------|
A|----------------------------0--0000000-1212121212121212--------------------|
D|-------5--55555550--0000000------------------------------------------------|

G|---------------------------------------------------------------------------|
D|---------------------------------------------------------------------------|
A|----55555555444444422222222------------------------------------------------|
D|----------------------------00000000-55555555-7\---------------------------|



Post-chorus3: 3:02-End

G|---------------------------------------------------------------------------|
D|---------------------------------------------------------------------------|
A|---------------------------------------------------------------------------|
D|--0--00-00--0-0-00-00---7\--------0--00-00--0-0-00-00----------------------|


| /  slide up
| \  slide down
| h  hammer-on
| p  pull-off
| ~  vibrato
| +  harmonic
| x  Mute note
===============================================================================

            
            
Suggest correction
Creating personal tab
Creating personal tab
You can edit any tab online and save it as your Personal.

You can edit, replace or remove any tab part or add personal notes – all changes will be seen only by you.

Personal tabs can be accessed anytime from any device, even offline.
Learn more »
comments
print report bad tab
5 comments total. Showing first comments.
+1 reply
Peacemaker21 37 Oct 21, 2009 09:47 AM

F*cking awesome tab man, not a thing wrong, and as for that fill you weren't sure about, I'm pretty sure its right, it sounds great to me, 5 stars

0 reply
Gr4nt13 10 Jan 09, 2011 08:48 AM

Great tab, thanks for posting my band plays this song and is so great at shows!
Thanks so much!

0 reply
NxtStopAtroCity 83 Feb 01, 2011 06:29 AM

If your not sure about the 14's then the 2's on the D string can be used. They sound just as good and it's less of a stretch for your hand ;D

But the 14's can also be used :D

Awesome job :D

guest
You may want to rate the tab now too:
select rating
Wanna post a correction for this tab? Suggest correction