Oops, an error
Loading. Please wait.
We have an official Weightless tab made by UG professional guitarists. Check out the tab »
×
14,970 views 9 this week
no commentswrite comment
1 2 3 4 5
x 3
add to favorites
×
Save as Personal and add changes to this tab that will be seen only by you. Learn more ›
×
You can save this tab as Personal to edit and correct it or add notes. All changes will be seen only by you. Learn more »
launch autoscroll
font size
0
reset
guitar tuner
backing track
0:00
0:00
edit
Autoscroll
slow
fast
+/-
esc
set tempo
stop
Author
Weightless Tabs – Bass
By Matt Thebert
mthebert@gmail.com

Drop D tuning (D-A-D-G)

My first tab, feedback is always welcome
I did a little video of me playing it on youtube
(though I think I made some changes to make it more accurate since then)
http://www.youtube.com/watch?v=JRzmOG63v2w


Verse 1 (0-:34)
---------------------------------------------------------------------------|
--------------------------REST---------------------------------------------|
---------------------------------------------------------------------------|
---------------------------------------------------------------------------|
Manage me I'm a mess Turn a page, I'm a book Half unread
---------------------------------------------------------------------------|
--------------------------REST---------------------------------------------|
---------------------------------------------------------------------------|
---------------------------------------------------------------------------|
I wanna be laughed at Laughed with, just because
---------------------------------------------------------------------------|
--------------------------REST---------------------------------------------|
---------------------------------------------------------------------------|
---------------------------------------------------------------------------|
I wanna feel weightless And that should be enough

---------------------------------------------------------------------------|
---------------------------------------------------------------------------|
---------------------------------------------------------------------------|
5-5------------------------------------------------------------------------|
     Well I'm stuck in this fucking rut Waiting on a second hand pick me up
---------------------------------------------------------------------------|
---------------------------------------------------------------------------|
---------------------------------------------------------------------------|
------------0-0------------------5-5-5-5-----------------------------------|
    And I'm over, getting older

Bridge 1 (:34-:43)
---------------------------------------------------------------------------|
--------------------------REST---------------------------------------------|
---------------------------------------------------------------------------|
---------------------------------------------------------------------------|
If I could just find the time Then I would never let another day go by
---------------------------------------------------------------------------|
---------------------------------------------------------------------------|
---------------------------------------------------------------------------|
----------0-0-0-0-|-0-0-0-0-|-0-0-0-0-|-0-0-0-0-|-0-0-0-0-|-0-0-0-0-|-0----|
 I'm over,                    getting                           old

Chorus 1 (:43-1:09)
---------------------------------------------------------------------------|
---------------------------------------------------------------------------|
---------------------------------------------------------------------------|
------------------5-55-555-----0-00-000----7-77-777------------------------|
Maybe it's not my weekend But it's gonna be my year
---------------------------------------------------------------------------|
---------------------------------------------------------------------------|
---------5-----------------------------------------------------------------|
-----7-9---4-4--5-55-555---------------0-00-000-------7-77-777-------------|
And I'm so sick of watching while the minutes pass as I go nowhere
----------------------------------------------------------------------------|
----------------------------------------------------------------------------|
-12-12-12-12-|-12-12-12-12-5555555-444444444---222222222--------------------|
----------------------------------------------------------------------------|
 And      this     is    my reaction To everything I fear
----------------------------------------------------------------------------|
----------------------------------------------------------------------------|
-0--------------------------------------------------------------------------|
-------------------------5-------------------7-------------12//---0---------|
Cause I've been going crazy I don't want to waste another minute here

---------------------------------------------------------------------------|
---------------------------------------------------------------------------|
---------------------------------------------------------------------------|
0-0-0-0-------------0---0---0----000---------------------------------------|

Verse 2 (1:09-1:30)
---------------------------------------------------------------------------|
--------------------------REST---------------------------------------------|
---------------------------------------------------------------------------|
---------------------------------------------------------------------------|
Make believe that I impress That every word
---------------------------------------------------------------------------|
--------------------------REST---------------------------------------------|
---------------------------------------------------------------------------|
---------------------------------------------------------------------------|
By design Turns a head
---------------------------------------------------------------------------|
--------------------------REST---------------------------------------------|
---------------------------------------------------------------------------|
---------------------------------------------------------------------------|
I wanna feel reckless I wanna live it up, just because
---------------------------------------------------------------------------|
--------------------------REST---------------------------------------------|
---------------------------------------------------------------------------|
---------------------------------------------------------------------------|
I wanna feel weightless Cause that would be enough

Bridge 2 (1:30-1:39)
------------------------------------------------------------------------------------|
------------------------------------------------------------------------------------|
------------------------------------------------------------------------------------|
12//-5-5-5-5-|-5-5-5-5-|-5-5-5-5-|-5-5-5-5--7-7-7-7-|-7-7-7-7-|-7-7-7-7-|-7-7-7-7---|
     If I could just find the time          Then I would never let another day go by
---------------------------------------------------------------------------|
---------------------------------------------------------------------------|
---------------------------------------------------------------------------|
0-0-0-0-|-0-0-0-0-|-0-0-0-0-|-0-0-0-0--12-12-12-12|12-12-12-12-|-12--------|
I'm       over,      getting       old

Chorus 2 (1:39-2:09)
---------------------------------------------------------------------------|
---------------------------------------------------------------------------|
---------------------------------------------------------------------------|
------------------5-55-555-----0-00-000----7-77-777------------------------|
Maybe it's not my weekend But it's gonna be my year
---------------------------------------------------------------------------|
---------------------------------------------------------------------------|
---------5-----------------------------------------------------------------|
-----7-9---4-4--5-55-555---------------0-00-000-------7-77-777-------------|
And I'm so sick of watching while the minutes pass as I go nowhere
-------------------------------------------------------------------------------|
-------------------------------------------------------------------------------|
-12-12-12-12-|-12-12-12-12-5555|5555-4444|44444---22222|2222-------------------|
-------------------------------------------------------------------------------|
And this is my reaction To everything I fear
---------------------------------------------------------------------------|
---------------------------------------------------------------------------|
-0000|0000-----------------------------------------------------------------|
------------------5555|5555-----------------7---------------------0--------|
Cause I've been going crazy I don't want to waste another minute here

---------------------------------------------------------------------------|
---------------------------------------------------------------------------|
---------------------------------------------------------------------------|
0-0-0-0---0---0---0----000---12// -0----0-0-0-0---0---0---0----000---------|

Middle 8 (2:09-2:30)
---------------------------------------------------------------------------|
---------------------------------------------------------------------------|
------------------7-7-7-7-|-7-7-7-7----------------------------------------|
2-2-2-2-|-2-2-2-2----------------------------------------------------------|
           This      could    be all
---------------------------------------------------------------------------|
------------------7-6-4----------------------------------------------------|
-------------------------7-5-4-2-0-----------------------------------------|
5-5-5-5-|-5-5-5-5------------------5-4-2-0--0-0-0-0---0---0---0----000-----|
 that      I've   waited       for        (Waited, I've waited for)
----------------------------------------------------------------------------|
----------------------------------------------------------------------------|
------------------7-7-7-7-|-7-7-7-7-----------------------------------------|
2-2-2-2-|-2-2-2-2-------------------5-5-5-5-|-5-5-5-5-|-5-5-5-5-------------|
                 And this could be everything
---------------------------------------------------------------------------|
---------------------------------------------------------------------------|
---------------------------------------------12-12---12-12----12-12--12-12-|
5-5-5-5-|-7-7-7-7-|-7-7-7-7-|-7-7-7-7--------------------------------------|
I      don't     wanna      dream      anymore

Chorus 3 (half-time) (2:30-2:42)
---------------------------------------------------------------------------|
---------------------------------------------------------------------------|
---------------------------------------------------------------------------|
12//0---------------------------------------------2------------------------|
Maybe it's not my weekend But it's gonnna be my year
---------------------------------------------------------------------------|
---------------------------------------------------------------------------|
----------------------------------------5----------------------------------|
----------------------5----------------------------------------------------|
And I've been going crazy I'm stuck in here

Chorus 4 (2:42-3:18)
---------------------------------------------------------------------------|
---------------------------------------------------------------------------|
---------------------------------------------------------------------------|
------------------5-55-555-----0-00-000----7-77-777------------------------|
Maybe it's not my weekend But it's gonna be my year(it's gonna be my year)
---------------------------------------------------------------------------|
---------------------------------------------------------------------------|
---------5-----------------------------------------------------------------|
-----7-9---4-4--5-55-555---------------0-00-000-------7-77-777-------------|
And I'm so sick of watching while the minutes pass as I go nowhere(go nowhere)
----------------------------------------------------------------------------|
----------------------------------------------------------------------------|
-12-12-12-12-|-12-12-12-12-5555555-444444444---222222222--------------------|
----------------------------------------------------------------------------|
And this is my reaction To everything I fear(everything I fear)
---------------------------------------------------------------------------|
---------------------------------------------------------------------------|
-0-------------------------------------------------------------------------|
-------------------------5-------------------7---------------------0-------|
Cause I've been going crazy I don't want to waste another minute here
---------------------------------------------------------------------------|
---------------------------------------------------------------------------|
---------------------------------------------------------------------------|
0-0-0-0---0---0---0----000---12// -0----0-0-0-0---0---0---0----0-----------|

            
            
Suggest correction
Creating personal tab
Creating personal tab
You can edit any tab online and save it as your Personal.

You can edit, replace or remove any tab part or add personal notes – all changes will be seen only by you.

Personal tabs can be accessed anytime from any device, even offline.
Learn more »
Give kudos to tab author, rate the tab!
1 2 3 4 5
comments
print report bad tab
guest
You may want to rate the tab now too:
select rating
Wanna post a correction for this tab? Suggest correction