Oops, an error
Loading. Please wait.
We have an official Weightless tab made by UG professional guitarists. Check out the tab »
×
18,882 views 24 this week
2 commentsread comments
1 2 3 4 5
x 13
add to favorites
×
Save as Personal and add changes to this tab that will be seen only by you. Learn more ›
×
You can save this tab as Personal to edit and correct it or add notes. All changes will be seen only by you. Learn more »
launch autoscroll
font size
0
reset
how to read this tab
guitar tuner
backing track
0:00
0:00
edit
Autoscroll
slow
fast
+/-
esc
set tempo
stop
~~Updated 05/04/13~~

/ - slide up
\ - slide down
* - palm mute
h - hammer on


-Verse 1-
e|---------------------------------------|
B|-x16--x16--x16--x32--x16--x16--x16-----|
G|---------------------------------------|
D|-5----7----0----5----7----0----5-------|
A|---------------------------------------|
D|---------------------------------------|
   *    *    *    *    *    *    *
 
e|------------------------------------------------------------------------|
B|------------------------------------------------------------------------|
G|------------------------------------------------------------------------|
D|--5555555555555555-7777777777777777-0000000000000000-5555555555555555---|
A|--55--------------------------------00----------------------------------|
D|--55--------------------------------00----------------------------------|
      ************** ****************   ************** ****************


e|---------------------------------------------------------------------|
B|---------------------------------------------------------------------|
G|---------------------------------------------------------------------|
D|--5555555555555555-7777777777777777-0000000000000000000000000--------|
A|--5555------------------------------0000000000000000000000000--------|
D|--5555------------------------------0000000000000000000000000--------|
        ************ **************** **************** 



-Chorus 1-
e|--------------------------------------------------------------------------|
B|--------------------------------------------------------------------------|
G|--------------------------------------------------------------------------|
D|-5-55-55-5-0-00-0-00-7-77-7-77--7-9-/12-4---------------------------------|
A|-5-55-55-5-0-00-0-00-7-77-7-77--7-9-/12-4---------------------------------|
D|-5-55-55-5-0-00-0-00-7-77-7-77--7-9-/12-4---------------------------------|

e|------------------------------------------------------------------------|
B|------------------------------------------------------------------------|
G|------------------------------------------------------------------------|
D|-5-55-55-5-0-00-0-00-7-77-7-77-7-77-7-77--------------------------------|
A|-5-55-55-5-0-00-0-00-7-77-7-77-7-77-7-77--------------------------------|
D|-5-55-55-5-0-00-0-00-7-77-7-77-7-77-7-77--------------------------------|


e|------------------------------------------------------------------------|
B|------------------------------------------------------------------------|
G|------------------------------------------------------------------------|
D|-9-99-99-9-7-77-7-77-5-55-5-55-5-55-5-55--------------------------------|
A|-9-99-99-9-7-77-7-77-5-55-5-55-5-55-5-55--------------------------------|
D|-9-99-99-9-7-77-7-77-5-55-5-55-5-55-5-55--------------------------------|


e|--------------------------------------------|-----------------------|
B|--------------------------------------------|-----------------------|
G|--------------------------------------------|-----------------------|
D|--5-55--5-55---5-55-5-55--7-\---------------|-0-0000-0-0-0000-------|
A|--5-55--5-55---5-55-5-55--7-\---------------|-0-0000-0-0-0000-------|
D|--5-55--5-55---5-55-5-55--7-\---------------|-0-0000-0-0-0000-------|
                                                  * *  *   * *                   


-Verse 2-
e|---------------------------------------|
B|-x16--x16--x16--x32--x16--x16--x16-----|
G|---------------------------------------|
D|-5----7----0----5----7----0----5-------|
A|---------------------------------------|
D|---------------------------------------|
   *    *    *    *    *    *    *

e|------------------------------------------------------------------------|
B|------------------------------------------------------------------------|
G|------------------------------------------------------------------------|
D|-5555555555555555-7777777777777777-000000000000000000000000-------------|
A|-5555555555555555-7777777777777777-000000000000000000000000-------------|
D|-5555555555555555-7777777777777777-000000000000000000000000-------------|
   **************** **************** ***************


-Chorus 2-
e|--------------------------------------------------------------------------|
B|--------------------------------------------------------------------------|
G|--------------------------------------------------------------------------|
D|-5-55-55-5-0-00-0-00-7-77-7-77--7-9-/12-4---------------------------------|
A|-5-55-55-5-0-00-0-00-7-77-7-77--7-9-/12-4---------------------------------|
D|-5-55-55-5-0-00-0-00-7-77-7-77--7-9-/12-4---------------------------------|

e|------------------------------------------------------------------------|
B|------------------------------------------------------------------------|
G|------------------------------------------------------------------------|
D|-5-55-55-5-0-00-0-00-7-77-7-77-7-77-7-77--------------------------------|
A|-5-55-55-5-0-00-0-00-7-77-7-77-7-77-7-77--------------------------------|
D|-5-55-55-5-0-00-0-00-7-77-7-77-7-77-7-77--------------------------------|


e|------------------------------------------------------------------------|
B|------------------------------------------------------------------------|
G|------------------------------------------------------------------------|
D|-9-99-99-9-7-77-7-77-5-55-5-55-5-55-5-55--------------------------------|
A|-9-99-99-9-7-77-7-77-5-55-5-55-5-55-5-55--------------------------------|
D|-9-99-99-9-7-77-7-77-5-55-5-55-5-55-5-55--------------------------------|


e|--------------------------------------------|--------------------------------------------|
B|--------------------------------------------|--------------------------------------------|
G|--------------------------------------------|--------------------------------------------|
D|--5-55--5-55---5-55-5-55--7-\---------------|-0-0000-0-0-0000-000--0-0000-0-0-0000-0000--|
A|--5-55--5-55---5-55-5-55--7-\---------------|-0-0000-0-0-0000-000--0-0000-0-0-0000-0000--|
D|--5-55--5-55---5-55-5-55--7-\---------------|-0-0000-0-0-0000-000--0-0000-0-0-0000-0000--|
                                                  * *  *   * *          * *  *   * *


-Bridge-
e|------------------------------------------------------------------------|
B|------------------------------------------------------------------------|
G|------------------------------------------------------------------------|
D|-2222222222222222-5555555555555555---0-0000-0-0-0000-0000---------------|
A|-2222222222222222-5555555555555555---0-0000-0-0-0000-0000---------------|
D|-2222222222222222-5555555555555555---0-0000-0-0-0000-0000---------------|
                                         * *  *   * *

e|------------------------------------------------------------------------|
B|------------------------------------------------------------------------|
G|------------------------------------------------------------------------|
D|-2222222222222222-5555555555555555---7-7-7-7-7-7-7-7-77-77-77-77-7777---|
A|-2222222222222222-5555555555555555---7-7-7-7-7-7-7-7-77-77-77-77-7777---|
D|-2222222222222222-5555555555555555---7-7-7-7-7-7-7-7-77-77-77-77-7777---|


e|-------------------------|
B|-------------------------|
G|-------------------------|
D|-0---h2-/5---0-----------|
A|-0---h2-/5---0-----------|
D|-0---h2-/5---0-----------|



-Chorus 3-
e|--------------------------------------------------------------------------|
B|--------------------------------------------------------------------------|
G|--------------------------------------------------------------------------|
D|-5-55-55-5-0-00-0-00-7-77-7-77--7-9-/12-4---------------------------------|
A|-5-55-55-5-0-00-0-00-7-77-7-77--7-9-/12-4---------------------------------|
D|-5-55-55-5-0-00-0-00-7-77-7-77--7-9-/12-4---------------------------------|

e|------------------------------------------------------------------------|
B|------------------------------------------------------------------------|
G|------------------------------------------------------------------------|
D|-5-55-55-5-0-00-0-00-7-77-7-77-7-77-7-77--------------------------------|
A|-5-55-55-5-0-00-0-00-7-77-7-77-7-77-7-77--------------------------------|
D|-5-55-55-5-0-00-0-00-7-77-7-77-7-77-7-77--------------------------------|


e|------------------------------------------------------------------------|
B|------------------------------------------------------------------------|
G|-7-77--7-77--6-66--6-66--4-44--4-44-------------------------------------|
D|-7-77--7-77--6-66--6-66--4-44--4-44-------------------------------------|
A|-5-55--5-55--4-44--4-44--2-22--2-22-------------------------------------|
D|------------------------------------------------------------------------|


e|--------------------------------------------|-------------------------------------|
B|--------------------------------------------|-------------------------------------|
G|--------------------------------------------|-------------------------------------|
D|--0-00--0-00---5-55-5-55--7-\---------------|-0-0000-0-0-0000-000--0-0000-0-0-00--|
A|--0-00--0-00---5-55-5-55--7-\---------------|-0-0000-0-0-0000-000--0-0000-0-0-00--|
D|--0-00--0-00---5-55-5-55--7-\---------------|-0-0000-0-0-0000-000--0-0000-0-0-00--|
                                                  * *  *   * *         * *  *   **

            
            
Suggest correction
Creating personal tab
Creating personal tab
You can edit any tab online and save it as your Personal.

You can edit, replace or remove any tab part or add personal notes – all changes will be seen only by you.

Personal tabs can be accessed anytime from any device, even offline.
Learn more »
comments
print report bad tab
2 comments total.
+3 reply
Magemad2k13 31 Mar 07, 2013 01:30 PM

This is great :') Love the song and LOVE this tab :D
It's so easy to learn that I learnt it in minutes

+1 reply
DomRusky 499 Mar 08, 2013 05:18 AM

Thanks for your comment :) I'm going to try and get the lead guitar tabbed for this song soon, cheers!

guest
You may want to rate the tab now too:
select rating
Wanna post a correction for this tab? Suggest correction