Oops, an error
Loading. Please wait.

Not By Power Tab

349 views 1 this week
no commentswrite comment
1 2 3 4 5
please rate
add to favorites
launch autoscroll
font size
0
reset
how to read this tab
guitar tuner
Tab Pro tools
  • play this tab
  • loop segment
  • change instrument
  • show fretboard
  • metronome
×
Best way to learn
"Not By Power"
Autoscroll
slow
fast
+/-
esc
set tempo
stop
Contributor
ATS is so awesome and so is their version of this song!  I believe that
this tab is very accurate, or at least it suits me just fine.  This is
how I play it when my praise band plays the song.  I left out the verse
only because I was too lazy to transcribe it and because I personally
don’t play it myself- just strum the verse chords or take a little break.
Email me if you have any questions and/or comments.

NOTE: ‘h’ – hammer-on
       ~  - vibrato
      ( ) - hold note

INTRO: with dist and phaser effect
                                      x3
  1   +   2   +   3    +   4   +
|----------------------------------|
|----------------------------------|
|----------------------------------|
|-12------10--12--x-x------10--12--|
|-----12---------------12----------|
|----------------------------------|

  1   +   2   +   3  +   4   +
|----------------------------------|
|----------------------------------|
|-----------------9--10------------|    Repeat the above 2
|-12------10--12---------12--------|    3 times, then play…
|-----12---------------------------|
|----------------------------------|

                                       x7
  1   +   2   +   3  +   4   +
|----------------------------------|
|----------------------------------|
|-----------------9--10------------|
|-12------10--12---------12--------|
|-----12---------------------------|
|----------------------------------|

  1   +   2   +  +  3   +   4   +
|----------------------------------|
|----------------------------------|
|----------------------------------|
|-12------12-10-12-----------------|
|-----------------------13---------|
|----------------------------------|


CHORUS: hold the Dm chord, then when the band kicks in, play

   1  2  3 + 4    1  2  +  3  + + 4  1  2  +  3  + + 4
|---------------|------------------|------------------|
|----------3----|----6--6--x--5----|----6--6--x--5----|
|----------3----|----7--7--x--5----|----7--7--x--5----|
|----------3----|----7--7--x--5----|----7--7--x--5----|
|----------1----|-5--5--5--x--5----|-5--5--5--x--5----|
|---------------|------------------|------------------|

  1  2  3  4     1  2  +  + 3 + 4 +
|--------------|--------------------|
|-3-----5------|----6--5--6---3---5-|
|-3-----5------|----7--5--7---3---5-|
|-3-----5------|----7--5--7---3---5-|
|-1-----3------|-5--5--5--5---1---3-|
|--------------|--------------------|

  1  2  +  3  + + 4  1  2  +  3  + + 4  1  2  +  3  + + 4
|------------------|------------------|------------------|
|----6--6--x--5----|----6--6--x--5----|----6--6--x--5----|
|----7--7--x--5----|----7--7--x--5----|----7--7--x--5----|
|----7--7--x--5----|----7--7--x--5----|----7--7--x--5----|
|-5--5--5--x--5----|-5--5--5--x--5----|-5--5--5--x--5----|
|------------------|------------------|------------------|

   1 + 2 +   3     +  4
|--5-5-5-5---/---------|
|--6-6-6-6---/----3----|
|--7-7-7-7---/----3----|
|--7-7-7-7---/----3----|
|--5-5-5-5---/----1----|
|-----------------------|

  1  2  +  3  + + 4  1  2  +  3  + + 4   1  2   3   4
|------------------|------------------|-----------------|
|----6--6--x--5----|----6--6--x--5----|--3------5-------|
|----7--7--x--5----|----7--7--x--5----|--3------5-------|
|----7--7--x--5----|----7--7--x--5----|--3------5-------|
|-5--5--5--x--5----|-5--5--5--x--5----|--1------3-------|
|------------------|------------------|-----------------|

  1 + + 2  3  4   1  2  3  4     1 2 3 4     1 2 3 4
|---------------|--------------|----------|------------|
|-6-5------5----|-3-----6--5---|-6--------|--------6--|
|-7-5------5----|-3-----5--5---|-7--HOLD--|--------7--|
|-7-5------7----|-3-----5--5---|-7--------|--------7--|
|-5-5------7----|-1-----3------|-5--------|--------5--|
|----------5----|--------------|----------|------------|


VERSE: Drew plays some lead licks throughout the first half of the verse,
but I was too lazy to figure them out

|F   |Fsus   F   |Dm   (C)|Bb    (C)|
|f   |Fsus   F   |Dm   (C)|Bb   (Am)|

   1 2  3  4    1  2  3 + 4 + 
|------------|-----------------|
|--3----5----|--3-------5---5--|
|--3----5----|--3-------5---5--|
|--5----7----|--3-------5---7--|
|--5----7----|--1-------3---7--|
|--3----5----|--------------5--|

   1 2  3  4    1  2  3 +  4 + 
|------------|----------------|
|--3----5----|--3----------5~-|
|--3----5----|--3------/5-(5)-|
|--5----7----|--3-------------|
|--5----7----|--1-------------|
|--3----5----|----------------|


Then play chorus, but for the last before coming back to the verse, play this:

  1 2 + 3   4     
|---------------|
|---6-5-6---5---|
|---7-5-7---5---|
|---7-5-7---5---|
|---5-5-5---3---|
|---------------|

Go back to the verse again, then play the chorus.  But when the music
break comes in, play this:

   *with a wah wah    
                        123 + 4
|-----------|----|----|-------|
|--6--------|----|----|-----3-|
|--7--HOLD--|----|----|-----3-|
|--7--------|----|----|-----3-|
|--5--------|----|----|-----1-|
|-----------|----|----|-------|






            *scratch in a rhythmic matter
|-------------|-----|-----|-------|
|--6--------x-|-x---|-x---|-3-/---|
|--7—7-5h7--x-|-x---|-x---|-3-/---|
|--7--------x-|-x---|-x---|-3-/---|
|--5--------x-|-x---|-x---|-1-/---|
|-------------|-----|-----|-------|

Then for the outro play this:

  1   +   2   +   3  +   4   +        x10
|----------------------------------|
|----------------------------------|
|-----------------9--10------------|
|-12------10--12---------12--------|
|-----12---------------------------|
|----------------------------------|


  *slow the tempo down
  1   +   2   +   3  +   4   +
|----------------------------------|
|----------------------------------|
|-----------------9--10------------|
|-12------10--12---------12--------|
|-----12---------------------------|
|----------------------------------|

  
|---------------|
|-6-------------|
|-7-HOLD/STRUM--|
|-7-UNTIL-END---|
|-5-------------|
|---------------|
comments
We did not receive enough feedback on this tab! Please rate:
print report bad tab
1 2 3 4 5
I want to post or [tab]
guest
You may want to rate the tab now too:
select rating
Please do not post tabs as comments. Select "correction" instead!