Oops, an error
Loading. Please wait.

Sweet Sweet Presence Tab

383 views 1 this week
no commentswrite comment
1 2 3 4 5
3 more votes to show rating
add to favorites
launch autoscroll
font size
0
reset
how to read this tab
guitar tuner
Autoscroll
slow
fast
+/-
esc
set tempo
stop
Help us to improve Ultimate-Guitar.com Take our survey!
×
ATS’s version of this song rocks!  This tab is very accurate, since I have
been studying Drew’s guitar style for a very long time now.  The following
contains all the fills and extra goodies that Drew does.  It shouldn’t be
too hard to follow.  You will have to pick up on the timing from the CD-
since it is hard to show it in tab form.  I will have more tabs by ATS
soon! Hope you enjoy it!

NOTE: ‘B’ – full bend
      ‘b’ – half bend
       ~  - vibrato
      ( ) - hold note

INTRO: this is the main lick throughout the song

|--------------------|--3----------------|----3-----------------|
|--------------------|--3----------------|----3-----------------|
|--------------------|-------------------|----------------------|
|-----0--3--0--3--5--|----0--3—-0--3--5--|-------0--3--0--3--5--|
|--------------------|-------------------|----------------------|
|--3-----------------|-------------------|--3-------------------|


|--3-----------------|----3----------------|--3-----------------|
|--3-----------------|----3----------------|--3-----------------|
|--------------------|---------------------|--------------------|
|-----0--3--0--3--5--|-------0--3—0--3--5--|-----0--3--0--3--5--|
|--------------------|---------------------|--------------------|
|--------------------|--3------------------|--------------------|


|-----3----------------|-------------------|
|-----3----------------|-------------------|
|----------------------|----REST-----------|
|-------0--3--0--3--5--|---------—---------|
|----------------------|-------------------|
|--3-------------------|-------------------|









VERSE: contains variations of the intro except for the fills towards the
end of each lick

 fill 1
|--3--------------|------------------|
|--3--------3--3--|--3---------------|
|-----------3--5—-|--4---------------|
|-----0--3--------|-------5--3-------|
|-----------------|-------------5----|
|--3--------------|------------------|

 fill 2               fill 3
|--------------------|--3---------------|--------------------|
|--------------------|--3--------3--3---|--3----------3-~~---|
|--3--4--------------|-----------3--5---|--4------7—-(7)~~---|
|--------5--3--------|-----0--3---------|--------------------|
|--------------5-----|------------------|--------------------|
|-----------------6b-|------------------|--------------------|


|--------------------|--3----------------|--3-----------------|
|--x----------------|--3----------------|--3-----------------|
|--x----------------|-------------------|--------------------|
|-----0--3--0--3--5--|-----0--3—0--3--5--|-----0--3--0--3--5--|
|--------------------|-------------------|--------------------|
|--------------------|-------------------|--------------------|


|-----3-------------------|
|-------3-----------------|
|--4-------4--3-----3—-4--|
|----------------5--------|
|-------------------------|
|-------------------------|


PRECHORUS: here are the chords- strum accordingly

   C9          D9          C9    D9
|--3--|--3--|--5--|--5--|--3--|--5/-|
|--3--|--3--|--5--|--5--|--3--|--5/-|
|--3--|--3--|--5--|--5--|--3--|--5/-|   then play intro
|--2--|--2--|--4--|-—4--|--2--|--4/-|   for 4 measures
|--3--|--3--|--5--|--5--|--3--|--5/-|
|-----|-----|-----|-----|-----|-----|







VERSE 1 again: with different fills

 fill 4
|--3--------------|-----------------|
|--3--------3--3--|--3--------------|
|-----------3--5—-|--4----5B--5-4~~-|
|-----0--3--------|-----------------|
|-----------------|-----------------|
|--3--------------|-----------------|


 fill 5 is the same as fill 2


 fill 6
|--3--------------|------------------|
|--3--------3--3--|--3----------6-~~-|
|-----------3--5—-|--4----7----(7)~~-|
|-----0--3--------|------------------|
|-----------------|------------------|
|--3--------------|------------------|


 fill 7 (2 measures before second prechorus- listen to the CD for the rhythm)
|--10---9/10-----|---10-------------|
|--10---9/10-----|----8-------------|
|--10---9/10---—-|----7-------------|
|---9---8/-9-----|------------------|
|--10---9/10-----|------------------|
|----------------|------------------|


PRECHORUS: same as the other except every now and then Drew will jump
between the C9 to D9 (and vice versa) with an Eb9 chord
   Eb9
|--4--|
|--4--|
|--4--|
|--3--|
|--4--|


CHORUS: again listen for the rhythm

   F     C     G     D
|--8--|--8--|--10--|--10--|
|--6--|--5--|---8--|---7--|
|--5--|--5--|---7--|---7--|
|--7--|--5--|---9--|-—-7--|
|-----|-----|------|------|
|-----|-----|------|------|


SOLO:

|------3----------------|----------------|
|-----------------------|----------------|
|--5B-----3--0---5--3---|----------------|
|-------------—---------|----------------|
|-----------------------|---5--3---------|
|-----------------------|----------6b----|


OUTRO:

|--------------------|-------------|---------------------|
|--------------------|-------------|---------------------|
|--------------------|-------------|---------------------|
|----0-3-0-3—0—3-5---|--0-3-0-3-5--|----0-3-0-3-0-3-5----|
|--------------------|-------------|---------------------|
|--3-----------------|-------------|--3------------------|


I know that I left some parts out, but they are all variations of the
above tabs.  If you have any questions and/or comments, please email me.
Keep playing for the Lord!

Chord Chart
   C9    D9    F     C     G     D     Eb9   G9    Gb9
|--3--|--5--|--8--|--8--|-10--|-10--|--4--|-10--|--9--|
|--3--|--5--|--6--|--5--|--8--|--7--|--4--|-10--|--9--|
|--3--|--5--|--5--|--5--|--7--|--7--|--4--|-10--|--9--|
|--2--|--4--|--7--|-—5--|--9--|--7--|--3--|--9--|--8--|
|--3--|--5--|-----|-----|-----|-----|--4--|-10--|--9--|
|-----|-----|-----|-----|-----|-----|-----|-----|-----|
Suggest correction
Give kudos to tab author, rate the tab!
1 2 3 4 5
comments
print report bad tab
guest
You may want to rate the tab now too:
select rating
Wanna post a correction for this tab? Suggest correction