Oops, an error
Loading. Please wait.

Thank You Bass Tab

130 views 15 this week
no commentswrite comment
1 2 3 4 5
3 more votes to show rating
add to favorites
launch autoscroll
font size
0
reset
guitar tuner
Autoscroll
slow
fast
+/-
esc
set tempo
stop
Help us to improve Ultimate-Guitar.com Take our survey!
×
Artist: All Tvvins
Song: Thank You
Tuning: Standard

[Intro]

G|--------------------------------------------------------------------------|
D|-6-6-6-6h8-8-8---------9-9-9-9p8------------------------------------------|
A|---------------6-6-6------------11----------------------------------------|
E|----------------------------------9-9-9-----------------------------------| X4

[Chorus]

G|--------------------------------------------------------------------------|
D|-6-6-6-6-8-8-8-8----------------------------------------------------------|
A|-------------------------6-6-6-6-9-9-9-9-9-9-9-9-9-9-9-9-9-9-9-9----------|
E|-----------------7-7-7-7--------------------------------------------------| X2

G|--------------------------------------------------------------------------|
D|-6-6-6-6-8-8-8-8----------------------------------------------------------|
A|-------------------------6-6-6-6-9-9-9-9-9-9-9-9--------------------------|
E|-----------------7-7-7-7--------------------------------------------------|

G|--------------------------------------------------------------------------|
D|--------------------------------------------------------------------------|
A|--------------------------------------------------------------------------|
E|-9-9-9-9-9-9-9-9-9-9-9-9-9-9-9-9-7-7-7-7-7-7-7-7-7-7-7-7-7-7-7-7----------|

[Solo] 

G|--------------------------------------------------------------------------|
D|-6-6-6-6-6-6-6-6----------------------------------------------------------|
A|-----------------4-4-4-4-4-4-4-4-9-9-9-9-9-9-9-9-9-9-9-9-9-9-9-9----------|
E|--------------------------------------------------------------------------|

This is essentially the basis of the song - that I have worked out so far.
You can just play around with the B major scale for the whole song and it sounds good.
Timings are as follows:

Intro - 00.12
Chorus - 00.46
Verse - 01.10
Chorus - 01.44
Chorus again - 02.05
Solo - 02.26  

************************************

| h   Hammer-on
| p   Pull-off

************************************
Suggest correction
Give kudos to tab author, rate the tab!
1 2 3 4 5
comments
print report bad tab
guest
You may want to rate the tab now too:
select rating
Wanna post a correction for this tab? Suggest correction