Oops, an error
Loading. Please wait.

Dont You Forget It chords

8,139 views 51 this week
3 commentsread comments
1 2 3 4 5
x 4
add to favorites
×
Save as Personal and add changes to this tab that will be seen only by you. Learn more ›
×
You can save this tab as Personal to edit and correct it or add notes. All changes will be seen only by you. Learn more »
launch autoscroll
font size
0
reset
transpose
0
reset
simplify chords
display chords
guitar tuner
edit
Autoscroll
slow
fast
+/-
esc
set tempo
stop
Strumming
There is no strumming pattern for this song yet. and get +5 IQ
Don't You Forget It by The Allah-las (off their self-titled album)


Intro: C  F  C  F  (x4)


Verse:

C             F         C               F          C      F    C   F                     
I think I've found a girl that I can talk to

C             F               C      F              C             F     C     F
Yeah I think I've found a girl that just might replace you

C               F                    C        F
She don't care if I got bread

C         F                    C                F
And I remember the things she said

C          F               C 
Yeah I think she will do

F      C      F     C     F
Uh-huh


Chorus:

D#5 
Oh

D5                        C    F    C   F 
Don't you forget it

D#5 
Oh

D5                        C    F    C   F   C  F  C   F
Don't you forget it



Other verse: 

G5
'Cause when the summertime leaves your town

F5
You know you ain't gonna find me around

G5
I'll be out there to follow the sun

F5
No I ain't gonna take no one

G5
If you thought that you tied me down

F5
Well girl it's high time that you found

G5
Only thing left for you to see

F5
You'll never find another man like me



Solo:   C  F  C  F (x4)

E|------------8--8-8-8--8-8-11--11--11--11---------------------------------------------------------
B|--8---11---------------------------------11--8-----8---------------------------------------------
G|-----------------------------------------------10b11b10--8---------------------8--10--10b12b10—8-
D|------------------------------------------------------------10--8--10--10--10--------------------
A|-------------------------------------------------------------------------------------------------
E|-------------------------------------------------------------------------------------------------

E|-------------------------------------------------------------------------------------------------
B|-------------------------------------------------------------------------------------------------
G|-------8---------12--12--10--8---------8---------------------------------------------------------
D|-8--10---10---8-----------------8--10-----10-----------------------------------------------------
A|-------------------------------------------------------------------------------------------------
E|-------------------------------------------------------------------------------------------------



Verse:

C        F         C         F                   C     F       C     F
I don't think I wanna hear 'bout none of your problems

C        F                    C         F                C     F    C     F
You like to act like the only one who's ever got them

C         F                C                F
But I know something you don't know

C          F                C               F
You're gonna reap just what you sow

C                             F
You stole some time of mine

C                           F              C    F      C     F
Now it's time for you to go


Chorus:

D#5
Oh


D5           C    F    C  F
Don't you forget it


D#5
Oh


D5         C    F    C    F   C   F   C   F
Don't you forget it

            
            
Suggest correction
Creating personal tab
Creating personal tab
You can edit any tab online and save it as your Personal.

You can edit, replace or remove any tab part or add personal notes – all changes will be seen only by you.

Personal tabs can be accessed anytime from any device, even offline.
Learn more »
comments
print report bad tab
3 comments total.
0 reply
Guuskolo 12 Jul 25, 2016 11:52 AM, edited on October 31 2016, 07:44 pm

anyone able to tab the solo ?

0 reply
Guuskolo 12 Oct 31, 2016 03:43 PM, edited at 07:43 pm

Stave 1:E|---------------8--8-8-8--8-8-11--11--11--11--------------------------------------------------------------------------------------------B|--8----11-------------------------------------------11--8---------8--------------------------------------------------------------------------G|---------------------------------------------------------------10b11b10--8------------------------8--10-b-12-b-10—8--------8-----D|---------------------------------------------------------------------------------10--8--10--10--10--------------------------8--10---10-A|-------------------------------------------------------------------------------------------------------------------------------------------------E|-------------------------------------------------------------------------------------------------------------------------------------------------E|------------------------------------------------------------------------------------------------------------------------------------------------B|------------------------------------------------------------------------------------------------------------------------------------------------G|----12--12--10--8----------8---------------------------------------------------------------------------------------------------------------D|-8--------------------8--10-----10----------------------------------------------------------------------------------------------------------A|-------------------------------------------------------------------------------------------------------------------------------------------------E|-------------------------------------------------------------------------------------------------------------------------------------------------

0 reply
Guuskolo 12 Oct 31, 2016 03:45 PM

Stave 1:

E|---------------8--8-8-8--8-8-11--11--11--11--------------------------------------------------------------------------------------------
B|--8----11-------------------------------------------11--8---------8--------------------------------------------------------------------------
G|---------------------------------------------------------------10b11b10--8------------------------8--10-b-12-b-10—8--------8-----
D|---------------------------------------------------------------------------------10--8--10--10--10--------------------------8--10---10-
A|-------------------------------------------------------------------------------------------------------------------------------------------------
E|-------------------------------------------------------------------------------------------------------------------------------------------------

E|------------------------------------------------------------------------------------------------------------------------------------------------
B|------------------------------------------------------------------------------------------------------------------------------------------------
G|----12--12--10--8----------8---------------------------------------------------------------------------------------------------------------
D|-8--------------------8--10-----10----------------------------------------------------------------------------------------------------------
A|-------------------------------------------------------------------------------------------------------------------------------------------------
E|-------------------------------------------------------------------------------------------------------------------------------------------------

guest
You may want to rate the tab now too:
select rating
Wanna post a correction for this tab? Suggest correction