Oops, an error
Loading. Please wait.

Wait Till Morning Tab

381 views 1 this week
no commentswrite comment
1 2 3 4 5
please rate
add to favorites
launch autoscroll
font size
0
reset
how to read this tab
guitar tuner
Tab Pro tools
  • play this tab
  • loop segment
  • change instrument
  • show fretboard
  • metronome
Autoscroll
slow
fast
+/-
esc
set tempo
stop
Contributor
Difficulty
This is my first attempt at doing a tab. I love this song. Nick Allbrook is god. It's 
not the proper chords, but it works better playing it like this acoustically...I 
think...oh well. Sorry if it's completely wrong!

Intro: Play an E chord for 8 bars of 4

e|-------------------|
B|-------------------|
G|--1-1-1-1-1-1-1-1--|      x8
D|--2-2-2-2-2-2-2-2--|
A|--2-2-2-2-2-2-2-2--|
E|-------------------|


Verse 1:

    Every night
e|-------------------|
B|-------------------|
G|--1-1-1-1-1-1-1-1--|
D|--2-2-2-2-2-2-2-2--|
A|--2-2-2-2-2-2-2-2--|
E|-------------------|

   Images fight
e|--4-4-4-4-4-4-4-4---|
B|--5-5-5-5-5-5-5-5---|
G|--6-6-6-6-6-6-6-6---|
D|--6-6-6-6-6-6-6-6---|
A|--4-4-4-4-4-4-4-4---|
E|--4-4-4-4-4-4-4-4---|

 For some time in the
e|-------------------|
B|-------------------|
G|--1-1-1-1-1-1-1-1--|
D|--2-2-2-2-2-2-2-2--|
A|--2-2-2-2-2-2-2-2--|
E|-------------------|

   Spotlight      if you
e|--2-2-2-2-2-2-2-2--|
B|--4-4-4-4-4-4-4-4--|
G|--2-2-2-2-2-2-2-2--|
D|--4-4-4-4-4-4-4-4--|
A|--2-2-2-2-2-2-2-2--|
E|--2-2-2-2-2-2-2-2--|

Chorus:

  wait,    till tomo-
e|--5-5-5-5-5-5-5-5--|
B|--5-5-5-5-5-5-5-5--|
G|--6-6-6-6-6-6-6-6--|
D|--7-7-7-7-7-7-7-7--|
A|--7-7-7-7-7-7-7-7--|
E|--5-5-5-5-5-5-5-5--|


rrow babe, all your
e|--7-7-7-7-7-7-7-7--|
B|--7-7-7-7-7-7-7-7--|
G|--8-8-8-8-8-8-8-8--|
D|--9-9-9-9-9-9-9-9--|
A|--9-9-9-9-9-9-9-9--|
E|--7-7-7-7-7-7-7-7--|

   pain,    and your
e|-------------------|
B|-------------------|
G|--1-1-1-1-1-1-1-1--|
D|--2-2-2-2-2-2-2-2--|
A|--2-2-2-2-2-2-2-2--|
E|-------------------|

  sorrow babe, will be
e|--4-4-4-4-4-4-4-4---|
B|--5-5-5-5-5-5-5-5---|
G|--6-6-6-6-6-6-6-6---|
D|--6-6-6-6-6-6-6-6---|
A|--4-4-4-4-4-4-4-4---|
E|--4-4-4-4-4-4-4-4---|

 gone gone gone
e|--5-5-5-5-5-5-5-5--|
B|--5-5-5-5-5-5-5-5--|
G|--6-6-6-6-6-6-6-6--|
D|--7-7-7-7-7-7-7-7--|
A|--7-7-7-7-7-7-7-7--|
E|--5-5-5-5-5-5-5-5--|

gone g-g gone gone
e|--7-7-7-7-7-7-7-7--|
B|--7-7-7-7-7-7-7-7--|
G|--8-8-8-8-8-8-8-8--|
D|--9-9-9-9-9-9-9-9--|
A|--9-9-9-9-9-9-9-9--|
E|--7-7-7-7-7-7-7-7--|

  gone
e|-------------------|
B|-------------------|
G|--1-1-1-1-1-1-1-1--|    x4
D|--2-2-2-2-2-2-2-2--|
A|--2-2-2-2-2-2-2-2--|
E|-------------------|

Verse 2:
 I felt ill
e|-------------------|
B|-------------------|
G|--1-1-1-1-1-1-1-1--|
D|--2-2-2-2-2-2-2-2--|
A|--2-2-2-2-2-2-2-2--|
E|-------------------|

 so I took a pill, it's
e|--4-4-4-4-4-4-4-4---|
B|--5-5-5-5-5-5-5-5---|
G|--6-6-6-6-6-6-6-6---|
D|--6-6-6-6-6-6-6-6---|
A|--4-4-4-4-4-4-4-4---|
E|--4-4-4-4-4-4-4-4---|

 yellow, it is my
e|-------------------|
B|-------------------|
G|--1-1-1-1-1-1-1-1--|
D|--2-2-2-2-2-2-2-2--|
A|--2-2-2-2-2-2-2-2--|
E|-------------------|

  wife, if you
e|--2-2-2-2-2-2-2-2--|
B|--4-4-4-4-4-4-4-4--|
G|--2-2-2-2-2-2-2-2--|
D|--4-4-4-4-4-4-4-4--|
A|--2-2-2-2-2-2-2-2--|
E|--2-2-2-2-2-2-2-2--|

Chorus: same as previous chorus except play this section 3 times

 gone gone gone
e|--5-5-5-5-5-5-5-5--|
B|--5-5-5-5-5-5-5-5--|
G|--6-6-6-6-6-6-6-6--|
D|--7-7-7-7-7-7-7-7--|
A|--7-7-7-7-7-7-7-7--|
E|--5-5-5-5-5-5-5-5--|

gone g-g gone gone
e|--7-7-7-7-7-7-7-7--|
B|--7-7-7-7-7-7-7-7--|
G|--8-8-8-8-8-8-8-8--|
D|--9-9-9-9-9-9-9-9--|
A|--9-9-9-9-9-9-9-9--|
E|--7-7-7-7-7-7-7-7--|

then stop playing for 4 counts

Verse 3:

   Hey! Hey! babe, you
e|-------------------|
B|-------------------|
G|--1-1-1-1-1-1-1-1--|
D|--2-2-2-2-2-2-2-2--|
A|--2-2-2-2-2-2-2-2--|
E|-------------------|

   look pretty cute
e|--4-4-4-4-4-4-4-4---|
B|--5-5-5-5-5-5-5-5---|
G|--6-6-6-6-6-6-6-6---|
D|--6-6-6-6-6-6-6-6---|
A|--4-4-4-4-4-4-4-4---|
E|--4-4-4-4-4-4-4-4---|

 I got a book you should
e|-------------------|
B|-------------------|
G|--1-1-1-1-1-1-1-1--|
D|--2-2-2-2-2-2-2-2--|
A|--2-2-2-2-2-2-2-2--|
E|-------------------|

  read,
e|--2-2-2-2-2-2-2-2--|
B|--4-4-4-4-4-4-4-4--|
G|--2-2-2-2-2-2-2-2--|
D|--4-4-4-4-4-4-4-4--|
A|--2-2-2-2-2-2-2-2--|
E|--2-2-2-2-2-2-2-2--|

Whats that,
e|--5-5-5-5-5-5-5-5--|
B|--5-5-5-5-5-5-5-5--|
G|--6-6-6-6-6-6-6-6--|
D|--7-7-7-7-7-7-7-7--|
A|--7-7-7-7-7-7-7-7--|
E|--5-5-5-5-5-5-5-5--|

Whatchya say?
e|--7-7-7-7-7-7-7-7--|
B|--7-7-7-7-7-7-7-7--|
G|--8-8-8-8-8-8-8-8--|
D|--9-9-9-9-9-9-9-9--|
A|--9-9-9-9-9-9-9-9--|
E|--7-7-7-7-7-7-7-7--|

 have you got a book for
e|-------------------|
B|-------------------|
G|--1-1-1-1-1-1-1-1--|
D|--2-2-2-2-2-2-2-2--|
A|--2-2-2-2-2-2-2-2--|
E|-------------------|

  me ?
e|--4-4-4-4-4-4-4-4---|
B|--5-5-5-5-5-5-5-5---|
G|--6-6-6-6-6-6-6-6---|
D|--6-6-6-6-6-6-6-6---|
A|--4-4-4-4-4-4-4-4---|
E|--4-4-4-4-4-4-4-4---|

play this section 3 times :
 la la la
e|--5-5-5-5-5-5-5-5--|
B|--5-5-5-5-5-5-5-5--|
G|--6-6-6-6-6-6-6-6--|
D|--7-7-7-7-7-7-7-7--|
A|--7-7-7-7-7-7-7-7--|
E|--5-5-5-5-5-5-5-5--|

la la la laaa la
e|--7-7-7-7-7-7-7-7--|
B|--7-7-7-7-7-7-7-7--|
G|--8-8-8-8-8-8-8-8--|
D|--9-9-9-9-9-9-9-9--|
A|--9-9-9-9-9-9-9-9--|
E|--7-7-7-7-7-7-7-7--|

after 3rd one play:

la
e|-------------------|
B|-------------------|
G|--1-1-1-1-1-1-1-1--|      x8
D|--2-2-2-2-2-2-2-2--|
A|--2-2-2-2-2-2-2-2--|
E|-------------------|



e|-----x-x-x---4--x-x-x--|
B|-----x-x-x---5--x-x-x--|
G|--1--x-x-x---6--x-x-x--|
D|--2--x-x-x---6--x-x-x--|    x4
A|--2--x-x-x---4--x-x-x--|
E|-----x-x-x---4--x-x-x--|
       d u d      d u d





Well...




Then play the whole thing straight through
and end on playing :

 gone gone gone
e|--5-5-5-5-5-5-5-5--|
B|--5-5-5-5-5-5-5-5--|
G|--6-6-6-6-6-6-6-6--|
D|--7-7-7-7-7-7-7-7--|
A|--7-7-7-7-7-7-7-7--|
E|--5-5-5-5-5-5-5-5--|

gone g-g gone gone
e|--7-7-7-7-7-7-7-7--|
B|--7-7-7-7-7-7-7-7--|
G|--8-8-8-8-8-8-8-8--|
D|--9-9-9-9-9-9-9-9--|
A|--9-9-9-9-9-9-9-9--|
E|--7-7-7-7-7-7-7-7--|
comments
We did not receive enough feedback on this tab! Please rate:
print report bad tab
1 2 3 4 5
I want to post or [tab]
guest
You may want to rate the tab now too:
select rating
Please do not post tabs as comments. Select "correction" instead!