Oops, an error
Loading. Please wait.

When Time Doesnt Heal Acoustic Tab

1,890 views 9 this week
no commentswrite comment
1 2 3 4 5
please rate
add to favorites
launch autoscroll
font size
0
reset
how to read this tab
guitar tuner
Tab Pro tools
  • play this tab
  • loop segment
  • change instrument
  • show fretboard
  • metronome
×
Best way to learn
"When Time Doesnt Heal Acoustic"
Autoscroll
slow
fast
+/-
esc
set tempo
stop
Contributor
Capo
7th fret
-------------------------------------------------------------------------------
                             WHEN TIME DOESN'T HEAL (ACOUSTIC) - Allen/Lande
-------------------------------------------------------------------------------
Tabbed by: ALiceLG
Email: scoopz_69@hotmail.com

Tuning: Capo on 7th

Chords

D......xx0232
Em9....022030
C9.....x32030
G......320033
Asus4..x0223x

Intro/Verses:

Notes with * are only played sometimes

e||--------3-------2-----------0---------------0--------------||
b||------3-----3-------3---------3-----------3---3------------||
G||----0---------0-------0---------0-------0-------0----------||
D||--------------------------------------2-----------2--------||
A||--3---------------------3-3---------2---------------2*-----||
E||----------------------------------0-------------------0*---||

e||--------------------0-------2p0-----0----0---0---0-----2*--||
b||----------3-----------3---------3---1----0h1-0-1-0-----3*--||
G||--------2-----2---------2---------2-2----2---2-2-0-----2*--||
D||------0---------0---------0---------2----------2-2-----0*--||
A||----0-------------0-----------------0------------2---------||
E||-------------------------------------------------0---------||

Chorus:

D D D D Em9 Em9 Em9 Em9 C9 C9 C9 C9 G G D Asus4

Strumming rhythm is like this:

(d)own
(u)p

1  2  3  4  1  2  3  4 ...
d     d  u  d     d  u ...

That's all, as accurate as I can hear it
comments
We did not receive enough feedback on this tab! Please rate:
print report bad tab
1 2 3 4 5
I want to post or [tab]
guest
You may want to rate the tab now too:
select rating
Please do not post tabs as comments. Select "correction" instead!