Oops, an error
Loading. Please wait.

Fick Ihn Doch chords

version 1
version 1

Whole song

  • Simplified Chords for this Song. Easier to Play without listening wrong.
3,307 views 15 this week
no commentswrite comment
1 2 3 4 5
1 last vote to show rating
add to favorites
×
Save as Personal and add changes to this tab that will be seen only by you. Learn more ›
×
You can save this tab as Personal to edit and correct it or add notes. All changes will be seen only by you. Learn more »
launch autoscroll
font size
0
reset
transpose
0
reset
simplify chords
display chords
guitar tuner
edit
Autoscroll
slow
fast
+/-
esc
set tempo
stop
Author
Difficulty
Strumming
There is no strumming pattern for this song yet. and get +5 IQ
Alligatoah - Fick Ihn Doch
Tempo track: 88 bpm.
Bar's size: 4/4.
Guitar tuning: standard (EADGBe)
Dub-step bass tuning: Drop D (DADG)
No Capo.


Chord's diagram:

    G5   F#5    B5    A5
e|-----|-----|-----|-----|
B|-----|-----|-----|-----|
G|-----|-----|-----|-----|
D|--5--|--4--|--9--|--7--|
A|--5--|--4--|--9--|--7--|
E|--3--|--2--|--7--|--5--|

[Intro]
(0:00 - 0:10)

  (strings)                                                                                 N.C.
e|14---------------------|-----------------------|-----------------------|-----------------------|
B|15---------------------|-----------------------|-----------------------|-----------------------|
G|16---------------------|-----------------------|-----------------------|-----------------------|
D|-----------------------|-----------------------|-----------------------|-----------------------|
A|-----------------------|-----------------------|-----------------------|-----------------------|
E|-----------------------|-----------------------|-----------------------|-----------------------|
 |1  &  2  &  3  &  4  &  1  &  2  &  3  &  4  &  1  &  2  &  3  &  4  &  1  &  2  &  3  &  4  & |
 |                                                                                               |
 |(pizzicato strings)                                                                       N.C. |
e|-----------------------|-----------------------|-----------------------|-----------------------|
B|-----------------------|-----------------------|-----------------------|-----------------------|
G|-----------------------|-----------------------|-----------------------|-----------------------|
D|-----------------------|---------------------4-|-----------------------|-----------------------|
A|---------------------5-|-----------------------|2--------------------5-|-----------------------|
E|-----------------------|2----------------------|-----------------------|2----------------------|
  1  &  2  &  3  &  4  &  1  &  2  &  3  &  4  &  1  &  2  &  3  &  4  &  1  &  2  &  3  &  4  & 


[Intro Riff]
(with lyrics)
(0:11 - 0:32)

G5 - G5 | F#5 - F#5 | B5 - B5 | B5 - B5 |

 (guitar rhythm)
  G5          F#5         B5                N.C.  G5          F#5         B5
e|-----------------------|-----------------------|-----------------------|-----------------------|
B|-----------------------|-----------------------|-----------------------|-----------------------|
G|-----------------------|-----------------------|-----------------------|-----------------------|
D|5--5--------4--4-------|9--9-------9---9-------|5--5--------4--4-------|9--9-------9---9-------|
A|5--5--------4--4-------|9--9-------9---9-------|5--5--------4--4-------|9--9-------9---9-------|
E|3--3--------2--2-------|7--7-------7---7-------|3--3--------2--2-------|7--7-------7---7-------|
  1  &  2  &  3  &  4  &  1  &  2  &  3  &  4  &  1  &  2  &  3  &  4  &  1  &  2  &  3  &  4  & |
                                                                                                 |
                                               "yeah!"                             "wow"    "aha-aha"
  (dub-step bass notes)                     N.C.                                            N.C. |
G|-----------------------|-----------------------|-----------------------|-----------------------|
D|-----------------------|-----------------------|-----------------------|-----------------------|
A|-----------------------|-----------------------|-----------------------|-----------------------|
D|5--5--5-----4--4--4----|9--9--0----9---9-------|5--5--5-----4--4--4----|9--9--0----9---9-------|
  1  &  2  &  3  &  4  &  1  &  2  &  3  &  4  &  1  &  2  &  3  &  4  &  1  &  2  &  3  &  4  & 

 (guitar rhythm)
  G5          F#5         B5                N.C.  G5          A5           B5
e|-----------------------|-----------------------|-----------------------|-----------------------|
B|-----------------------|-----------------------|-----------------------|-----------------------|
G|-----------------------|-----------------------|-----------------------|-----------------------|
D|5--5--------4--4-------|9--9-------9---9-------|5--5--5--5--7--7--7--7-|9--9--9--9--9--9--9--9-|
A|5--5--------4--4-------|9--9-------9---9-------|5--5--5--5--7--7--7--7-|9--9--9--9--9--9--7--9-|
E|3--3--------2--2-------|7--7-------7---7-------|3--3--3--3--5--5--5--5-|7--7--7--7--7--7--7--7-|
  1  &  2  &  3  &  4  &  1  &  2  &  3  &  4  &  1  &  2  &  3  &  4  &  1  &  2  &  3  &  4  & |
                                                                                                 |
                                               "bitch"                                           |
  (dub-step bass notes)                     N.C.                                                 |
G|-----------------------|-----------------------|-----------------------|-----------------------|
D|-----------------------|-----------------------|5--5--5--5--7--7--7--7-|9--9--9--9--9--9--9--9-|
A|-----------------------|-----------------------|-----------------------|-----------------------|
D|5--5--5-----4--4--4----|9--9--0----9---9-------|-----------------------|-----------------------|
  1  &  2  &  3  &  4  &  1  &  2  &  3  &  4  &  1  &  2  &  3  &  4  &  1  &  2  &  3  &  4  & | 
                                                                                                 |
 (guitar lead)                                                                                   |  
e|-----------------------|-----------------------|-----------------------|-----------------------|
B|-----------------------|-----------------------|-----------------------|-----------------------|
G|-----------------------|-----------------------|14-14-14-14-14-14-14-14|7-/11-11-11-11-11-11-11|
D|-----------------------|-----------------------|x--x--x--x--x--x--x--x-|x-/x--x--x--x--x--x--x-|
A|-----------------------|-----------------------|12-12-12-12-12-12-12-12|5-/9--9--9--9--9--9--9-|
E|-----------------------|-----------------------|-----------------------|-----------------------|
  1  &  2  &  3  &  4  &  1  &  2  &  3  &  4  &  1  &  2  &  3  &  4  &  1  &  2  &  3  &  4  &


(after all one bar of strings as in intro)
(0:33 - 0:35)

  (strings)
e|14---------------------|
B|15---------------------|
G|16---------------------|
D|-----------------------|
A|-----------------------|
E|-----------------------|


[Verse 1]
(0:36 - 1:07)
(there plays the bass notes only, but if you want you can play chords)

            G5                  F#5
Ich bin ein kleiner Spion in geheimer Mission
     B5
Tarnjacke, Fernglas. Schatz, ich weiß, wo du wohnst
           G5                         F#5
Dass du gereizt von Verboten bist, beweise ich schon
           B5
Bist du alleine im Zoo, bin ich verkleidet als Cro
            G5                    F#5
Ich hab Kostüme für alles, ich ermittle verdeckt
       B5        
Stichprobentest, die Leute finden's nicht so korrekt
                   G5                            F#5                   
Dass ich dein' schwulen besten Freund zu einem Treffen auf Toilette ruf
 B5                        N.C.
   Äh... Okay, der ist tatsächlich schwul
N.C.    G5      F#5                       
Deinen Bettbezug bring ich dir morgen rum
B5                                         
  Ich warte immer noch auf den Laborbefund
G5                           F#5
  Die sagen, du hast kein Gilette-Wachs benutzt
B5                      N.C.
  Kombiniere, kombiniere, da ist etwas im Busch


[Hook]
(1:08 - 1:29)

(intro riff 0:11 - 0:32)

G5                       F#5                         B5 
  In Jalousie-bedeckter Wohnung amüsierst du dich alleine
                 B5
Du hörst Iggy Pop - Dann fick ihn doch!
G5                           F#5           
  Durch zeugenlose Wald und Wiesen gehst du Gassi
         B5                   B5
Mit dem Hund in einem Minirock - Dann fick ihn doch!
G5                      F#5                         B5               
  An euphorieberaubten Tagen frequentierst du eine Kirche
                     B5
Und du sprichst mit Gott - Dann fick ihn doch!
G5            A5                       B5
  Alles tippitop, und das fickt mein' Kopf
                  B5              N.C.      
Dann fick ihn doch, fick ihn doch!


[Verse 2]

N.C.
(1:30 - 1:35)

     "Vertrauen ist gut, doch Kontrolle ist"
  (strings)
e|14---------------------|
B|15---------------------|
G|16---------------------|
D|-----------------------|
A|-----------------------|
E|-----------------------|

(1:36 - 2:08)

G5                          F#5
Besser!, sagte schon mein Großvater
B5
E-Mail für dich - Trojaner
       G5                                 F#5
Ein Geheimnis solltest du auch deiner Schwester nicht erzählen
         B5
Die ist relativ gesprächig mit 'nem Messer an der Kehle
    G5                           F#5               
Auf Arbeit, in der Sauna, ob in Kinos oder Luftschlössern
B5                                                      G5   
Immer dieser Typ vor dir, der Zeitung liest mit Gucklöchern
G5                         F#5
Manchmal werden meine Rohstoffe knapp
      B5
Mehr Hoden im Club als ich KO-Tropfen hab
           G5                              F#5  
Die rennen eh, wenn sie die Wanze in deim' Arschloch bemerken
     B5                                                                      G5
Überwach so krass, von mir kann selbst der Staat noch was lernen (Aber dick!)
                F#5
Eifersucht ist die Leidenschaft
        B5               N.C.
Die mit Eifer sucht, was Leiden schafft - Zitat!


[Hook]
(2:09 - 2:29)

(intro riff 0:11 - 0:32)

G5                       F#5                         B5 
  In Jalousie-bedeckter Wohnung amüsierst du dich alleine
                 B5
Du hörst Iggy Pop - Dann fick ihn doch!
G5                           F#5           
  Durch zeugenlose Wald und Wiesen gehst du Gassi
         B5                   B5
Mit dem Hund in einem Minirock - Dann fick ihn doch!
G5                      F#5                         B5               
  An euphorieberaubten Tagen frequentierst du eine Kirche
                     B5
Und du sprichst mit Gott - Dann fick ihn doch!
G5            A5                       B5
  Alles tippitop, und das fickt mein' Kopf
                  B5              N.C.      
Dann fick ihn doch, fick ihn doch!


(2:30 - 2:38)

  (strings)
e|14---------------------|
B|15---------------------|
G|16---------------------|
D|-----------------------|
A|-----------------------|
E|-----------------------|


[Verse 3]
(2:39 - 3:24)

Dub-step part. You can play the same chords as in verse 1 and 2 if you want: 
G5 F#5 B5

Und auf einmal schlägt die Lichtschranke zu, hinter der Giftschlangengrube
Und dem Gartenzwerg, der Stichflammen pustet
Hat es ein Postmann geschafft, er ist fast in deiner Wohnung drin
Ich aktivier die Kamera in dei'm Verlobungsring
Jetzt wird es krass spannend, jetzt werde ich achtsam
Der Typ gibt ihr einen Brief und macht 'n Abgang
Schlappschwanz, geh sofort zurück und leg die Fotze flach
Spione, Helikopter, was denkt ihr, was das gekostet hat?!
Es kann nicht sein, dass ich mein' Jahreslohn verschwende
Damit du am Ende dastehst wie ein makelloser Engel
Nimm den Schwanz, Frau, dann kann ich die Standpauke halten
Du musst schuld sein, sonst will ich zu Sandstaub zerfallen
Mach den einen falschen Step und ich bleibe im Recht
Bau das Drama, das mich in die Freiheit entlässt
Und das ohne Abschied zu nehmen von meiner weißen Weste
"Baby, gib mir nur 'nen Grund zu tun, wofür ich sonst keine Eier hätte"


[Pause]
N.C.
(3:25 - 3:27)


[Hook]
(3:28 - 3:50)

(intro riff 0:11 - 0:32)

G5                       F#5                         B5 
  In Jalousie-bedeckter Wohnung amüsierst du dich alleine
                 B5
Du hörst Iggy Pop - Dann fick ihn doch!
G5                           F#5           
  Durch zeugenlose Wald und Wiesen gehst du Gassi
         B5                   B5
Mit dem Hund in einem Minirock - Dann fick ihn doch!
G5                      F#5                         B5               
  An euphorieberaubten Tagen frequentierst du eine Kirche
                     B5
Und du sprichst mit Gott - Dann fick ihn doch!
G5            A5                       B5
  Alles tippitop, und das fickt mein' Kopf
                  B5              N.C.      
Dann fick ihn doch, fick ihn doch!



************************************

| x  Dead note
| /  Slide up

************************************

            
            
Suggest correction
Creating personal tab
Creating personal tab
You can edit any tab online and save it as your Personal.

You can edit, replace or remove any tab part or add personal notes – all changes will be seen only by you.

Personal tabs can be accessed anytime from any device, even offline.
Learn more »
Give kudos to tab author, rate the tab!
1 2 3 4 5
comments
print report bad tab
guest
You may want to rate the tab now too:
select rating
Wanna post a correction for this tab? Suggest correction