Oops, an error
Loading. Please wait.

Namen Machen intro tab

version 1
version 1

Intro

Whole song

5,281 views 6 this week
1 commentread comment
1 2 3 4 5
x 10
add to favorites
×
Save as Personal and add changes to this tab that will be seen only by you. Learn more ›
×
You can save this tab as Personal to edit and correct it or add notes. All changes will be seen only by you. Learn more »
launch autoscroll
font size
0
reset
how to read this tab
guitar tuner
edit
Autoscroll
slow
fast
+/-
esc
set tempo
stop
Author
YOUTUBE GUITARLESSON / TUTORIAL LINK:
http://www.youtube.com/watch?v=hu8nk2oKnsY



E|-------------4------------------------------------|
H|--------9------6----------------------------------|
G|-----------------6--------5-----------------------|
D|-----10--------------------------10-10^-11p-10-8--|
A|---8--------------------6-------------------------|
E|----------------------4--------8------------------|


E|-------------4------------------------------------|
H|--------9------6----------------------------------|
G|-----------------6--------5---------9-------------|
D|-----10--------------------------10---------------|
A|---8--------------------6-------------------------|
E|----------------------4--------8------------------|

Chords and other stuff is already Tabbed by others on Ultimate Guitar.


Tabbed By JulesThomall

            
            
Suggest correction
Creating personal tab
Creating personal tab
You can edit any tab online and save it as your Personal.

You can edit, replace or remove any tab part or add personal notes – all changes will be seen only by you.

Personal tabs can be accessed anytime from any device, even offline.
Learn more »
comments
print report bad tab
1 comment total.
+1 reply
Shoshanna_ 10 Mar 24, 2014 05:17 AM

E|--------------4------------------------------------|
H|--------9-------6----------------------------------|
G|------------------6--------5-----------------------|
D|-----10---------------------------10--11--8--------|
A|---8---------------------6-------------------------|
E|-----------4-----------4--------8------------------|

E|--------------4------------------------------------|
H|--------9-------6----------------------------------|
G|------------------6--------5----------9------------|
D|-----10--------------------------------------------|
A|---8-------4-------------6---------10--------------|
E|-----------------------4--------8------------------|

E|--------------4------------------------------------|
H|--------9-------6----------------------------------|
G|------------------6--------5-----------------------|
D|-----10---------------------------10-10^-11p-8-----|
A|---8---------------------6-------------------------|
E|-----------4-----------4--------8------------------|

E|--------------4------------------------------------|
H|--------9-------6----------------------------------|
G|------------------6--------5-----------------------|
D|-----10---------------------------8----------------|
A|---8---------------------6-------------------------|
E|-----------4-----------4--------8------------------|

guest
You may want to rate the tab now too:
select rating
Wanna post a correction for this tab? Suggest correction