Oops, an error
Loading. Please wait.
We have Chord Pro version of Willst Du.
It's the closest thing you can get to the original song and it has interactive parts. Check out the tab »
×
24,654 views 99 this week
2 commentsread comments
1 2 3 4 5
x 11
add to favorites
×
Save as Personal and add changes to this tab that will be seen only by you. Learn more ›
×
You can save this tab as Personal to edit and correct it or add notes. All changes will be seen only by you. Learn more »
launch autoscroll
font size
0
reset
transpose
0
reset
display chords
guitar tuner
edit
Autoscroll
slow
fast
+/-
esc
set tempo
stop
Author
Difficulty
Strumming
There is no strumming pattern for this song yet. and get +5 IQ
-------------------------------------------------------------------------------
                             Willst Du Unplugged - Alligatoah
-------------------------------------------------------------------------------
Tabbed by: AlvadoZ
Original: http://youtu.be/7Sqyo24T6LA
Tuning: Standart


Intro: Am, F, C, G 4x

Lead: 

e|--------------------------------------------------------------------------|
B|------8-------------------------------------------------------------------|
G|--7h9----7h9-5--5-4-------------------------------------------------------|
D|--------------------------------------------------------------------------|
A|--------------------------------------------------------------------------|
E|--------------------------------------------------------------------------|

Verse:

   Am    F           C      G       
   Willst du mit mir Rodeln gehen?
Am     F                 C      G     
   Dem Schlitten mal die Sporen geben.
Am     F               C         G 
   Wir können auch ein Snowboard nehmen.
   Am    F           C      G
   Willst du mit mir Rodeln gehen?

Hook:

F           C                G                  Am
   Komm wir fahr'n, komm wir fahr'n zusamm' den Hang runter.
F           C                G                  Am
   Komm wir fahr'n, komm wir fahr'n zusamm' den Hang runter.
F           C                G                  Am
   Komm wir fahr'n, komm wir fahr'n zusamm' den Hang runter.
F        C              G              G            G   
   Unser Blut macht das Schneebedeckte Land bunter.


(Nun geht es durch jede einzelne Strophe und jede Hook so weiter)
Suggest correction
Creating personal tab
Creating personal tab
You can edit any tab online and save it as your Personal.

You can edit, replace or remove any tab part or add personal notes – all changes will be seen only by you.

Personal tabs can be accessed anytime from any device, even offline.
Learn more »
comments
print report bad tab
2 comments total.
0 reply
ZaB23 639 Aug 28, 2013 06:56 AM

Bis auf das hohe G im Lick stimmt alles, da müsste wieder das C (g im 5.) hin. Finde es so:
e|-----------------------|
b|-----------------------|
g|---7h9----7h9----------|
d|-------10-----10--10-9-|
a|-----------------------|
e|-----------------------|
etwas einfacher zu spielen, aber das is Geschmackssache =)

-1 reply
andreas.kreiter 10 Jul 02, 2014 01:45 AM

Hallo,
kann mir bitte jemand noch Schlagmuster dazu erklären? Alleine bekomme ich es noch nicht hin, bin noch zu sehr Anfänger.
Vielen Dank voraus.

guest
You may want to rate the tab now too:
select rating
Wanna post a correction for this tab? Suggest correction