Oops, an error
Loading. Please wait.

Willst Du Tab

version 1
version 1

Whole song

Interactive

Video

90,068 views 138 this week
3 commentsread comments
1 2 3 4 5
accurate
x 9
add to favorites
launch autoscroll
font size
0
reset
how to read this tab
guitar tuner
Autoscroll
slow
fast
+/-
esc
set tempo
stop
Help us to improve Ultimate-Guitar.com Take our survey!
×
Author
Difficulty
intermediate
Hallo! Ich habe dieses Lied komplett rausgehört also es besteht womöglich keine 
100 prozentige Korrektheit dieses Tabs! Aber in meinen Ohren klingt es genauso wie 
im Original! Enjoy! :)

YOUTUBE GUITARLESSON / TUTORIAL LINK:
http://www.youtube.com/watch?v=WsvKdd_uDsw


^ = Hammer on nächste Note :)

[Intro/Verse 1] Guitar in Chorus

e|----------------------------------------------------|
B|----------0-----------0-----------------------------|
G|------6h8---------6h8---------8-------6------6------|
D|--6-6----------------------------9----8------8------|
A|--------------7-7-----------------------------------|
E|--------------------------7-7-------------6-----6---|


[Chorus]

(2. Guitar) Spielt man gedämpft!

e|----------------------------------------|
B|----------------------------------------|
G|------------4-4-4-4---6-6-6-6-----------|
D|--2-2-2-2---4-4-4-4---6-6-6-6---4-4-4-4-|
A|--2-2-2-2---2-2-2-2---4-4-4-4---4-4-4-4-|
E|--0-0-0-0-----------------------2-2-2-2-|


Im Hintergrund des Chorus sind hohe Noten... diese sind es denk' ich mal:

E|---14--------14---------|
H|---16---16---16---16----|
G|------------------------|
D|------------------------|
A|------------------------|
E|------------------------|


[Solo]

gegen Ende:

E|---14-----------14---------|
H|-------16------------16----|
G|---------------------------|
D|---------------------------|
A|---------------------------|
E|---------------------------|


Tabbed by JulesThomall



************************************

| h  hammer 
| ^  bend up

************************************
Suggest correction
comments
print report bad tab
3 comments total.
0 reply
AlvadoZ 70 wrote on July 29 2013, 08:37 pm

vers-akkorde sind richtig aber das intro spielt man meiner meinung nach :


e|----------------------------------------------------|
B|----------0-----------0-----------------------------|
G|------6h8---------6h8---------8-------6------6------|
D|--6-6----------------------------9----8------8------|
A|--------------7-7-----------------------------------|
E|--------------------------7-7-------------6-----6---|


und nachdem das im chorus gespielt wurde kommt ab "komm wir gehn, komm wir gehn,....:


e|----------------------------------------|
B|----------------------------------------|
G|------------4-4-4-4---6-6-6-6-----------|
D|--2-2-2-2---4-4-4-4---6-6-6-6---4-4-4-4-|
A|--2-2-2-2---2-2-2-2---4-4-4-4---4-4-4-4-|
E|--0-0-0-0-----------------------2-2-2-2-|

0 reply
JulesThomall 87 wrote on August 11 2013, 10:31 am

Danke! Beim Intro die letzten Noten hör ich anders aber sonst guter Verbesserungsvorschlag :)

-2 reply
Balin le Savage 10 wrote on August 11 2014, 01:53 pm

Lack of accuracy. Tab incomplete. Clearly wrong.

guest
You may want to rate the tab now too:
select rating
Wanna post a correction for this tab? Suggest correction