Oops, an error
Loading. Please wait.

Aqui Tab

version 1
version 1

Whole song

Interactive

25,055 views 6 this week
2 commentsread comments
1 2 3 4 5
accurate
x 4
add to favorites
launch autoscroll
font size
0
reset
how to read this tab
guitar tuner
Autoscroll
slow
fast
+/-
esc
set tempo
stop
Help us to improve Ultimate-Guitar.com Take our survey!
×
intro
   guitarra 1              x9
 Eb|------14------14-------|-12-11----11------------|
 Bb|-11/12---11/12---11/12-|-------12------12-11/12-|
 Gb|-----------------------|------------------------|
 Db|-----------------------|------------------------|
 Ab|-----------------------|------------------------|
 Eb|-----------------------|------------------------|

   guitarra 2
 Eb|------------------------------------------------------------------|
 Bb|------------------------------------------------------------------|
 Gb|------------------------------------------------------------------|
 Db|-9999999999999999222222222222222266666666666666664444444444444444-|
 Ab|-9999999999999999222222222222222266666666666666664444444444444444-|
 Eb|-7777777777777777000000000000000044444444444444442222222222222222-|

verso
   guitarra 1
 Eb|--------------------------------------------------------|
 Bb|--------------------------------------------------------|
 Gb|---4--4-4---4--4-4---4--4-4---4--4-4--------------------|
 Db|--4-4--4---4-4--4---4-4--4---4-4--4-----4--4-4---2--2-2-|
 Ab|-2---2----2---2------------------------4-4--4---2-2--2--|
 Eb|-------------------2---2----2---2-----2---2----0---0----|

   guitarra 2
 Eb|-------------------------------------------------|
 Bb|-------------------------------------------------|
 Gb|---4~-4~---------444444444444444-6666666666666666|
 Db|--4-------4~-4~--444444444444444-6666666666666666|
 Ab|-2-------4-------222222222222222-4444444444444444|
 Eb|-------------------------------------------------|
                     ..............................PM

coro
   guitarra 1 y 2
 Eb|---------------------------------------------------------------------|
 Bb|---------------------------------------------------------------------|
 Gb|---------------------------------------------------------------------|
 Db|-9999999999999999222222222222222266666666666666664444444444444444-2-4|
 Ab|-9999999999999999222222222222222266666666666666664444444444444444-2-4|
 Eb|-7777777777777777000000000000000044444444444444442222222222222222-0-2|

post-coro
   guitarra 1
 Eb|------------------------|
 Bb|------------------------|
 Gb|---4---4-3~-4-4-4-3-----|
 Db|-----4--------------4---|
 Ab|----------------------6-|
 Eb|------------------------|x2
  
   guitarra 2                    
 Eb|----------------------------------|
 Bb|----------------------------------|
 Gb|-44444444444444446666666666666666-|
 Db|-44444444444444446666666666666666-|
 Ab|-22222222222222224444444444444444-|
 Eb|----------------------------------|

verso2
   guitarra 1
 Eb|---------------------------------------------------|
 Bb|---------------------------------------------------|
 Gb|-4>-4>-------4>------------------------------------|
 Db|-4>-4>-4>-4>-4>------------------------------------|
 Ab|-2>-2>-4>-4>-2>--22222222222222222-4444444444444444|
 Eb|----2>-0>-2>---------------------------------------|
     .................................................PM

   guitarra 2
 Eb|-------------------------------------------------|
 Bb|-------------------------------------------------|
 Gb|-4>--------------444444444444444-6666666666666666|
 Db|-4>--------------444444444444444-6666666666666666|
 Ab|-2>--------------222222222222222-4444444444444444|
 Eb|-------------------------------------------------|
                     ...............................PM

coro
   guitarra 1 y 2
 Eb|-----------------------------------------------------------------------------|
 Bb|-----------------------------------------------------------------------------|
 Gb|-----------------------------------------------------------------------------|
 Db|-9999999999999999222222222222222266666666666666664444444444444444-22-22-44-44|
 Ab|-9999999999999999222222222222222266666666666666664444444444444444-22-22-44-44|
 Eb|-7777777777777777000000000000000044444444444444442222222222222222-00-00-22-22|

intermedio
   guitarra 1 y 2                    
 Eb|--------------------------------------------|
 Bb|--------------------------------------------|
 Gb|--------------------------------------------|
 Db|-2222-99-22-99-22-22-44-44--2222-99-22-99-2~|
 Ab|-2222-99-22-99-22-22-44-44--2222-99-22-99-2~|
 Eb|-0000-77-00-77-00-00-22-22--0000-77-00-77-0~|
     ....    ..                 ....    ..PM     
coro2
   guitarra 1 y 2
 Eb|----------------------------------------------------------------------|
 Bb|----------------------------------------------------------------------|
 Gb|-666666666666666-----------------------------------------------------6|
 Db|-666666666666666-444444444444444-888888888888888-666666666666666-4-6-6|
 Ab|-444444444444444-444444444444444-888888888888888-666666666666666-4-6-4|
 Eb|-----------------222222222222222-666666666666666-444444444444444-2-4--|
Suggest correction What's this?
You can suggest a correction to this tab. Community and Mods will review your correction and vote to approve or reject it.
comments
print report bad tab
2 comments total.
0 reply
try_to_hit_me 33 wrote on December 2 2006, 07:20 pm

oye guey ta pinta

0 reply
try_to_hit_me 33 wrote on December 10 2006, 08:10 pm

k significa notas con 4>?

I want to post or [tab]
guest
You may want to rate the tab now too:
select rating
Please do not post tabs as comments. Select "correction" instead!