Oops, an error
Loading. Please wait.

Aqui tab

version 4
version 4

Whole song

Interactive

by Allison
1,177 views 1 this week
no commentswrite comment
1 2 3 4 5
2 more votes to show rating
add to favorites
×
Save as Personal and add changes to this tab that will be seen only by you. Learn more ›
×
You can save this tab as Personal to edit and correct it or add notes. All changes will be seen only by you. Learn more »
launch autoscroll
font size
0
reset
how to read this tab
guitar tuner
edit
Autoscroll
slow
fast
+/-
esc
set tempo
stop
Difficulty
aquii les va
nota:las dos guitarras estan en bemol

Fear              Erik
Eb|------------|  Eb|------------|
Ab|------------|  Ab|------------|
Db|------------|  Db|------------|
Gb|------------|  Gb|------------|
Bb|------------|  Bb|------------|
eb|------------|  eb|------------|

h =hammer-on
. =palm.mute
~ = dejas sonando




ahora sii aii les va..

Intro
Fear
|-------------------------------------------|
|-------------------------------------------|esto lo toca una 
|-------------------------------------------|vez cuando entre la
|-------------------------------------------|bateria 4 veces y 
|--11h12--11h12--11h12-11h12--11h12--11h12--|la cuarta ves es
|-------14-----14-----------14-----14-------|diferente.
aqui esta la cuarta..

|-------------------------------------|
|-------------------------------------|
|-------------------------------------|
|-------------------------------------|
|--11h12--11h12--11h12--12--11-11-----|
|-------14-----14---------------------|

Erik
|--7------0------4------2-----0~--7~--|
|--9(x16)-2(x16)-6(x16)-4(x8)-2~--9~--|
|--9------2------6------4-----2~--9~--|
|-------------------------------------|
|-------------------------------------|
|-------------------------------------|

en verso 1 solo va voz y bajo hasta
la parte de "..nunca me valla.."

Pre-verso("..nunca me valla a separar..")
Fear&Erik
|--0-0-0-0-0-0-2-2-2-2-2-2-222222222--|
|--2-2-2-2-2-2-4-4-4-4-4-4-444444444--|
|--2-2-2-2-2-2-4-4-4-4-4-4-444444444--|
|-------------------------------------|
|-------------------------------------|
|-------------------------------------|
   . . . . . . . . . . . . 

Coro 1
Fear
|------------------------------------------------------|
|--2222-4444-6--22-44-6-4-2-4-7/9--2-4-6-7-6-4-2-7/9---|
|--xxxx-xxxx-x--xx-xx-x-x-x-x-x-x--x-x-x-x-x-x-x-x-x---|
|--4444-6666-8--44-66-8-6-4-6-9-11-4-6-8-9-8-6-4-9-11--|
|------------------------------------------------------|
|------------------------------------------------------|

|---------------------------|
|--7-9--7-6-2-6-2~-6-4-2-1--|
|--x-x--x-x-x-x-x--x-x-x-x--|
|--9-11-9-8-4-8-4--8-6-4-3--|
|---------------------------|
|---------------------------|

Erik
|--7------0------4------2-----0~--2~--|
|--9(x16)-2(x16)-6(x16)-4(x8)-2~--4~--|
|--9------2------6------4-----2~--4~--|
|-------------------------------------|
|-------------------------------------|
|-------------------------------------|

Pre-verso
Erick        x2           x1          Fear&Erik("..nouhooo..")
|-------------------|--0---------|  |--0000000000-2222222222--|
|---2---------------|------------|  |--2222222222-4444444444--|
|-------4--------4--|---2---4-2--|x1|--2222222222-4444444444--|
|--4-4-3--4-4-4-3---|----4-3-----|  |-------------------------|
|-------------------|------------|  |-------------------------|
|-------------------|------------|  |-------------------------|

Verso 2
Fear
|--7------0------4-----0-----2-----4------7------00000-2222222--|
|--9(x32)-2(x32)-6(x8)-2(x4)-4(x6)-6(x16)-9(x16)-22222-4444444--|
|--9------2------6-----2-----4-----6------9------22222-4444444--|
|---------------------------------------------------------------|
|---------------------------------------------------------------|
|---------------------------------------------------------------|
   .      .      .     .     .     .      .   

Coro 2
Fear
|----------------------------------|
|--2222-4444-6--22-44-6-4-2-4-7/9--|
|--xxxx-xxxx-x--xx-xx-x-x-x-x-x-x--|
|--4444-6666-8--44-66-8-6-4-6-9-11-|
|----------------------------------|
|----------------------------------|

|-------------------------------------|
|--2-4-6-7-6-4-2-7/9--7-9--7-6-2-6-2--|
|--x-x-x-x-x-x-x-x-x--x-x--x-x-x-x-x--|
|--4-6-8-9-8-6-4-9-11-9-11-9-8-4-8-4--|
|-------------------------------------|
|-------------------------------------|

Erik
|--7------0------4------2-------|
|--9(x16)-2(x16)-6(x16)-4(x8)---|
|--9------2------6------4-------|
|-------------------------------|
|-------------------------------|
|-------------------------------|

Puente
Erik
|--0-0-00-22------444-44-444-44--0-0-00-22------444-44-444-44-0~--|
|--2-2-22-44------666-66-666-66--2-2-22-44------666-66-666-66-2~--|
|--2-2-22-44------666-66-666-66--2-2-22-44------666-66-666-66-2~--|
|-----------------------------------------------------------------|
|-----------------------------------------------------------------|
|-----------------------------------------------------------------|

Fear
|--0-0-00-22------444-44-444-44--0-0-00-22------444-44-444-44-0~--|
|--2-2-22-44------666-66-666-66--2-2-22-44------666-66-666-66-2~--|
|--2-2-22-44----5-666-66-666-66--2-2-22-44----5-666-66-666-66-2~--|
|------------4h3---------------------------4h3--------------------|
|-----------------------------------------------------------------|
|-----------------------------------------------------------------|

Coro 3
Fear               x3                             x1               x8    
|---------------------------------------------|-----------------|---------|
|--4-6-8--9--8--9--8--6-8--9--8--11--9--8--9--|--4~-9999999--8--|---------|
|--x-x-x--x--x--x--x--x-x--x--x--x---x--x--x--|--x--xxxxxxx--x--|---------|
|--6-8-10-11-10-11-10-8-10-11-10-13--11-10-11-|--6~-1111111--10-|---------|
|---------------------------------------------|-----------------|-11-12---|
|---------------------------------------------|-----------------|------14-|

Erik
|---------2------6------4------|---------2------6------4------|
|--4------4(x16)-8(x16)-6(x24)-|--4------4(x16)-8(x16)-6(x4)--|
|--6(x16)-4------8------6------|--6(x16)-4------8------6------|
|--6---------------------------|--6---------------------------|
|------------------------------|------------------------------|
|------------------------------|------------------------------|

Fear&Erik
|--2~-4~-----|
|--4~-6~-4~--|
|--4~-6~-6~--|la ultima vez que dice "..te amo" 
|--------6~--|
|------------|
|------------|


eso es todo

dudas, comentarios,etc

-->mychemicalmessenger@hotmail.com<--

hasta la otra=P

            
            
Suggest correction
Creating personal tab
Creating personal tab
You can edit any tab online and save it as your Personal.

You can edit, replace or remove any tab part or add personal notes – all changes will be seen only by you.

Personal tabs can be accessed anytime from any device, even offline.
Learn more »
Give kudos to tab author, rate the tab!
1 2 3 4 5
comments
print report bad tab
guest
Wanna post a correction for this tab? Suggest correction