Oops, an error
Loading. Please wait.

Escapar tab

version 2
version 2

Whole song

by Allison
202 views 1 this week
no commentswrite comment
1 2 3 4 5
3 more votes to show rating
add to favorites
×
Save as Personal and add changes to this tab that will be seen only by you. Learn more ›
×
You can save this tab as Personal to edit and correct it or add notes. All changes will be seen only by you. Learn more »
launch autoscroll
font size
0
reset
how to read this tab
guitar tuner
edit
Autoscroll
slow
fast
+/-
esc
set tempo
stop
Tablatura hecha por: Omar Arbesú 
Si tienen alguna duda o comentario escríbanme a mi correo: omar_arbesu@hotmail.com

Allison – Escapar
Tuning: D
D-A-D-G-B-E

[Intro] 
                                 
D|-----------------------------------------------------------------|------------|
A|-----------------------------------------------------------------|------------|
F|---6--6-6--6-6-6--6-6-6--6-6-6-----------------------------------|-----6~-----|
C|---6--6-6--6-6-6--6-6-6--6-6-6-6--6-6--6-6-6--6-6-6--6-6-6-------|-----6~-----| x4
G|---4--4-4--4-4-4--4-4-4--4-4-4-6--6-6--6-6-6--6-6-6--6-6-6-------|-----4~-----|
D|-------------------------------6--6-6--6-6-6--6-6-6--6-6-6-------|------------|


[Verse]

D|------------------------------------------------------------------------------|
A|------------------------------------------------------------------------------|
F|------------------------------------------------------------------------------|
C|------------------------------------------------------------------------------|
G|------------------------------------------------------------------------------|
D|-8--8-8-8-8-8-8-8-8-4--4-4-4-4-4-4-4-4--8--8-8-8-8-8-8-8-8--6--6-6-6-6-6-6-6-6|


[Pre-Chorus]

D|------------------------------------------------------------------------------|
A|------------------------------------------------------------------------------|
F|------------------------------------------------------------------------------|
C|-1-1-1-1-1-1-1-1--4--4-4-4-4-4-4-4--8-8-8-8-8-8-8-8--6--6-6-6-6-6-6-6---------|
G|-1-1-1-1-1-1-1-1--4--4-4-4-4-4-4-4--8-8-8-8-8-8-8-8--6--6-6-6-6-6-6-6---------|
D|-1-1-1-1-1-1-1-1--4--4-4-4-4-4-4-4--8-8-8-8-8-8-8-8--6--6-6-6-6-6-6-6---------|

D|------------------------------------------------------------------------------|
A|------------------------------------------------------------------------------|
F|------------------------------------------------------------------------------|
C|-1-1-1-1-1-1-1-1--4--4-4-4-4-4-4-4--6-6-6-6-6-6-6-6--6-6-6--------------------|
G|-1-1-1-1-1-1-1-1--4--4-4-4-4-4-4-4--6-6-6-6-6-6-6-6--6-6-6--------------------|
D|-1-1-1-1-1-1-1-1--4--4-4-4-4-4-4-4--6-6-6-6-6-6-6-6--6-6-6--------------------|
                                                     Pm. . . 

[Chorus]
                              
D|------------------------------------------------------------------------------|
A|------------------------------------------------------------------------------|
F|---6--6-6--6-6-6--6-6-6--6-6-6------------------------------------------------|
C|---6--6-6--6-6-6--6-6-6--6-6-6-6--6-6--6-6-6--6-6-6--6-6-6--------------------|
G|---4--4-4--4-4-4--4-4-4--4-4-4-6--6-6--6-6-6--6-6-6--6-6-6--------------------|
D|-------------------------------6--6-6--6-6-6--6-6-6--6-6-6--------------------|

D|------------------------------------------------------------------------------|
A|------------------------------------------------------------------------------|
F|---6--6-6--6-6-6--6-6-6--6-6-6------------------------------------------------|
C|---6--6-6--6-6-6--6-6-6--6-6-6-6--6-6--6-6-6--6-6-6--6-6-6--------------------|
G|---4--4-4--4-4-4--4-4-4--4-4-4-6--6-6--6-6-6--6-6-6--6-6-6--------------------|
D|-------------------------------6--6-6--6-6-6--6-6-6--6-6-6--------------------|

D|------------------------------------------------------------------------------|
A|------------------------------------------------------------------------------|
F|------------------------------------------------------------------------------|
C|---8--8-8-8-8-8-8-8-8-8-8-8-8-8-8-8--6--6-6-6-6-6-6-6-6-6-6-6-6-6-6-6---------|
G|---8--8-8-8-8-8-8-8-8-8-8-8-8-8-8-8--6--6-6-6-6-6-6-6-6-6-6-6-6-6-6-6---------|
D|---8--8-8-8-8-8-8-8-8-8-8-8-8-8-8-8--6--6-6-6-6-6-6-6-6-6-6-6-6-6-6-6---------|


D|------------------------------------------------------------------------------|
A|------------------------------------------------------------------------------|
F|------------------------------------------------------------------------------|
C|--4--4-4-4-4-4-4-4-4-4-4-4-4-4-4-4--4-4-4-4-4-4-4-4-4-4-4-4-4-4-4-------------|
G|--4--4-4-4-4-4-4-4-4-4-4-4-4-4-4-4--4-4-4-4-4-4-4-4-4-4-4-4-4-4-4-------------|
D|--4--4-4-4-4-4-4-4-4-4-4-4-4-4-4-4--4-4-4-4-4-4-4-4-4-4-4-4-4-4-4-------------|


[Instrumental]

D|-----------------------------------------------------------------|------------|
A|-----------------------------------------------------------------|------------|
F|---6--6-6--6-6-6--6-6-6--6-6-6-----------------------------------|-----6~-----|
C|---6--6-6--6-6-6--6-6-6--6-6-6-6--6-6--6-6-6--6-6-6--6-6-6-------|-----6~-----| x2
G|---4--4-4--4-4-4--4-4-4--4-4-4-6--6-6--6-6-6--6-6-6--6-6-6-------|-----4~-----|
D|-------------------------------6--6-6--6-6-6--6-6-6--6-6-6-------|------------|
    
                          
[Verse]

D|------------------------------------------------------------------------------|
A|------------------------------------------------------------------------------|
F|------------------------------------------------------------------------------|
C|------------------------------------------------------------------------------|
G|------------------------------------------------------------------------------|
D|-8--8-8-8-8-8-8-8-8-4--4-4-4-4-4-4-4-4--8--8-8-8-8-8-8-8-8--6--6-6-6-6-6-6-6-6|


[Pre-Chorus]

D|------------------------------------------------------------------------------|
A|------------------------------------------------------------------------------|
F|------------------------------------------------------------------------------|
C|-1-1-1-1-1-1-1-1--4--4-4-4-4-4-4-4--8-8-8-8-8-8-8-8--6--6-6-6-6-6-6-6---------|
G|-1-1-1-1-1-1-1-1--4--4-4-4-4-4-4-4--8-8-8-8-8-8-8-8--6--6-6-6-6-6-6-6---------|
D|-1-1-1-1-1-1-1-1--4--4-4-4-4-4-4-4--8-8-8-8-8-8-8-8--6--6-6-6-6-6-6-6---------|

D|------------------------------------------------------------------------------|
A|------------------------------------------------------------------------------|
F|------------------------------------------------------------------------------|
C|-1-1-1-1-1-1-1-1--4--4-4-4-4-4-4-4--6-6-6-6-6-6-6-6--6-6-6--------------------|
G|-1-1-1-1-1-1-1-1--4--4-4-4-4-4-4-4--6-6-6-6-6-6-6-6--6-6-6--------------------|
D|-1-1-1-1-1-1-1-1--4--4-4-4-4-4-4-4--6-6-6-6-6-6-6-6--6-6-6--------------------|
                                                     Pm. . . 

[Chorus]
                              
D|------------------------------------------------------------------------------|
A|------------------------------------------------------------------------------|
F|---6--6-6--6-6-6--6-6-6--6-6-6------------------------------------------------|
C|---6--6-6--6-6-6--6-6-6--6-6-6-6--6-6--6-6-6--6-6-6--6-6-6--------------------|
G|---4--4-4--4-4-4--4-4-4--4-4-4-6--6-6--6-6-6--6-6-6--6-6-6--------------------|
D|-------------------------------6--6-6--6-6-6--6-6-6--6-6-6--------------------|

D|------------------------------------------------------------------------------|
A|------------------------------------------------------------------------------|
F|---6--6-6--6-6-6--6-6-6--6-6-6------------------------------------------------|
C|---6--6-6--6-6-6--6-6-6--6-6-6-6--6-6--6-6-6--6-6-6--6-6-6--------------------|
G|---4--4-4--4-4-4--4-4-4--4-4-4-6--6-6--6-6-6--6-6-6--6-6-6--------------------|
D|-------------------------------6--6-6--6-6-6--6-6-6--6-6-6--------------------|

D|------------------------------------------------------------------------------|
A|------------------------------------------------------------------------------|
F|------------------------------------------------------------------------------|
C|---8--8-8-8-8-8-8-8-8-8-8-8-8-8-8-8--6--6-6-6-6-6-6-6-6-6-6-6-6-6-6-6---------|
G|---8--8-8-8-8-8-8-8-8-8-8-8-8-8-8-8--6--6-6-6-6-6-6-6-6-6-6-6-6-6-6-6---------|
D|---8--8-8-8-8-8-8-8-8-8-8-8-8-8-8-8--6--6-6-6-6-6-6-6-6-6-6-6-6-6-6-6---------|


D|------------------------------------------------------------------------------|
A|------------------------------------------------------------------------------|
F|------------------------------------------------------------------------------|
C|--4--4-4-4-4-4-4-4-4-4-4-4-4-4-4-4--4-4-4-4-4-4-4-4-4-4-4-4-4-4-4-------------|
G|--4--4-4-4-4-4-4-4-4-4-4-4-4-4-4-4--4-4-4-4-4-4-4-4-4-4-4-4-4-4-4-------------|
D|--4--4-4-4-4-4-4-4-4-4-4-4-4-4-4-4--4-4-4-4-4-4-4-4-4-4-4-4-4-4-4-------------|
  

[Bridge]

D|------------------------------------------------------------------------------|
A|------------------------------------------------------------------------------|
F|--(6-6--6-6--6-6) ---4-4--4-4--4-4--------------------------------------------|
C|--(6-6--6-6--6-6) ---4-4--4-4--4-4--------------------------------------------|
G|--(4-4--4-4--4-4) ---4-4--4-4--4-4--------------------------------------------|
D|------------------------------------------------------------------------------|
Pm   . .  . .  . .     . .  . .  . .

D|------------------------------------------------------------------------------|
A|------------------------------------------------------------------------------|
F|--6-6-6-----------------------------------------------------------------------|
C|--6-6-6-4--4-4-4-4-4-8--8-8-8-8-8-11--11-11-11-11-11-11-4--4-4-4-4-4-4--------|
G|--4-4-4-4--4-4-4-4-4-8--8-8-8-8-8-11--11-11-11-11-11-11-4--4-4-4-4-4-4--------|
D|--------4--4-4-4-4-4-8--8-8-8-8-8-11--11-11-11-11-11-11-4--4-4-4-4-4-4--------|
                  
D|------------------------------------------------------------------------------|
A|------------------------------------------------------------------------------|
F|------------------------------------------------------------------------------|
C|--6-6-6-6-6-6-----------------------------------------------------------------|
G|--6-6-6-6-6-6-----------------------------------------------------------------|
D|--6-6-6-6-6-6-----------------------------------------------------------------|

D|------------------------------------------------------------------------------|
A|------------------------------------------------------------------------------|
F|--6-6-6-----------------------------------------------------------------------|
C|--6-6-6-4--4-4-4-4-4-8--8-8-8-8-8-11--11-11-11-11-11-11-4--4-4-4-4-4-4--------|
G|--4-4-4-4--4-4-4-4-4-8--8-8-8-8-8-11--11-11-11-11-11-11-4--4-4-4-4-4-4--------|
D|--------4--4-4-4-4-4-8--8-8-8-8-8-11--11-11-11-11-11-11-4--4-4-4-4-4-4--------|
                  
D|----------------|-------------------------------------------------------------|
A|----------------|-------------------------------------------------------------|
F|----------------|--6~---------------------------------------------------------|
C|--6-6-6-6-6-6---|--6~---------------------------------------------------------|
G|--6-6-6-6-6-6---|--4~---------------------------------------------------------|
D|--6-6-6-6-6-6---|-------------------------------------------------------------|


[Chorus]
                              
D|------------------------------------------------------------------------------|
A|------------------------------------------------------------------------------|
F|---6--6-6--6-6-6--6-6-6--6-6-6------------------------------------------------|
C|---6--6-6--6-6-6--6-6-6--6-6-6-6--6-6--6-6-6--6-6-6--6-6-6--------------------|
G|---4--4-4--4-4-4--4-4-4--4-4-4-6--6-6--6-6-6--6-6-6--6-6-6--------------------|
D|-------------------------------6--6-6--6-6-6--6-6-6--6-6-6--------------------|

D|------------------------------------------------------------------------------|
A|------------------------------------------------------------------------------|
F|---6--6-6--6-6-6--6-6-6--6-6-6------------------------------------------------|
C|---6--6-6--6-6-6--6-6-6--6-6-6-6--6-6--6-6-6--6-6-6--6-6-6--------------------|
G|---4--4-4--4-4-4--4-4-4--4-4-4-6--6-6--6-6-6--6-6-6--6-6-6--------------------|
D|-------------------------------6--6-6--6-6-6--6-6-6--6-6-6--------------------|

D|------------------------------------------------------------------------------|
A|------------------------------------------------------------------------------|
F|------------------------------------------------------------------------------|
C|---8--8-8-8-8-8-8-8-8-8-8-8-8-8-8-8--6--6-6-6-6-6-6-6-6-6-6-6-6-6-6-6---------|
G|---8--8-8-8-8-8-8-8-8-8-8-8-8-8-8-8--6--6-6-6-6-6-6-6-6-6-6-6-6-6-6-6---------|
D|---8--8-8-8-8-8-8-8-8-8-8-8-8-8-8-8--6--6-6-6-6-6-6-6-6-6-6-6-6-6-6-6---------|


D|------------------------------------------------------------------------------|
A|------------------------------------------------------------------------------|
F|------------------------------------------------------------------------------|
C|--4--4-4-4-4-4-4-4-4-4-4-4-4-4-4-4--4-4-4-4-4-4-4-4-4-4-4-4-4-4-4-------------|
G|--4--4-4-4-4-4-4-4-4-4-4-4-4-4-4-4--4-4-4-4-4-4-4-4-4-4-4-4-4-4-4-------------|
D|--4--4-4-4-4-4-4-4-4-4-4-4-4-4-4-4--4-4-4-4-4-4-4-4-4-4-4-4-4-4-4-------------|


[Outro]

D|-----------------------------------------------------------------|------------|
A|-----------------------------------------------------------------|------------|
F|---6--6-6--6-6-6--6-6-6--6-6-6-----------------------------------|-----6~-----|
C|---6--6-6--6-6-6--6-6-6--6-6-6-6--6-6--6-6-6--6-6-6--6-6-6-------|-----6~-----| x2
G|---4--4-4--4-4-4--4-4-4--4-4-4-6--6-6--6-6-6--6-6-6--6-6-6-------|-----4~-----|
D|-------------------------------6--6-6--6-6-6--6-6-6--6-6-6-------|------------|



************************************

| ~  Vibrato

************************************

            
            
Suggest correction
Creating personal tab
Creating personal tab
You can edit any tab online and save it as your Personal.

You can edit, replace or remove any tab part or add personal notes – all changes will be seen only by you.

Personal tabs can be accessed anytime from any device, even offline.
Learn more »
Give kudos to tab author, rate the tab!
1 2 3 4 5
comments
print report bad tab
guest
You may want to rate the tab now too:
select rating
Wanna post a correction for this tab? Suggest correction