Oops, an error
Loading. Please wait.

Fragil Bass Tab

version 1
version 1
12,474 views 9 this week
3 commentsread comments
1 2 3 4 5
please rate
add to favorites
launch autoscroll
font size
0
reset
guitar tuner
Autoscroll
slow
fast
+/-
esc
set tempo
stop
Help us to improve Ultimate-Guitar.com Take our survey!
×
Author
Difficulty
novice
No se que tan dificil sea de tocar en bajo, pero creo que no es tanto.

Gtr I (E A D G) - 'Electric Bass (finger)'

    Q=140
   4/4
    Gtr I
||-----------11----------|----------11----------|
||o-12-12-12----12-12-12-|-------------12-12-12-|
||o----------------------|-12-12-12-------------|
||-----------------------|----------------------|


|----------11----------|----------14-----------||--|
|-------------12-12-12-|-------------12-14-11-o||--|
|-10-10-10-------------|-12-12-12-------------o||--|
|----------------------|-----------------------||--|


|----------11-----------|----------11-----------|
|-12-12-12----12--12-12-|-------------12--12-12-|
|-----------------------|-12-12-12--------------|
|-----------------------|-----------------------|


|----------11-----------|---------------|
|-------------12--12-12-|---------------|
|-10-10-10--------------|---------------|
|-----------------------|-7-(7)-7--5----|


|-----------------|-----------------|-----------------|-----------------|
|-----------------|-----------------|-----------------|-----------------|
|-5-5-5-5-5-5-5-5-|-----------------|-----------------|-----------------|
|-----------------|-5-5-5-5-5-5-5-5-|-3-3-3-3-3-3-3-3-|-7-7-7-7-5-5-5-5-|


|-----------------|-----------------|-----------------|---------------|
|-----------------|-----------------|-----------------|---------------|
|-5-5-5-5-5-5-5-5-|-----------------|-----------------|---------------|
|-----------------|-5-5-5-5-5-5-5-5-|-3-3-3-3-3-3-3-3-|-7--(7)-7-5----|


||------------------|-----------------|------------------|-------------------||
||o-----------------|-----------------|------------------|------------------o||
||o-5-5-5-5-5-5-5-5-|-----------------|-7-7-7-7-7-7-9-10-|------------------o||
||------------------|-5-5-5-5-5-5-5-5-|------------------|-3-3-3-3-2-2-2-2---||


|--------------------|-----------------------|
|--------------------|-----------------------|
|--------------------|-----------------------|
|-3----3-(3)-3-(3)-3-|-5----5-(5)-5-(5)-5----|


                                                                          4x
||------------------|-----------------|-----------------|-----------------||
||o-----------------|-----------------|-----------------|----------------o||
||o-5-5-5-5-5-5-5-5-|-----------------|-----------------|----------------o||
||------------------|-5-5-5-5-5-5-5-5-|-3-3-3-3-3-3-3-3-|-7-7-7-7-5-5-5-5-||


||------------------|-----------------|------------------|-----------------||
||o-----------------|-----------------|------------------|----------------o||
||o-5-5-5-5-5-5-5-5-|-----------------|-7-7-7-7-7-7-9-10-|----------------o||
||------------------|-5-5-5-5-5-5-5-5-|------------------|-3-3-3-3-2-2-2-2-||


|----------------------|------------------|
|----------------------|------------------|
|----------------------|------------------|
|-3--3-(3)-3-(3)-3--5--|-5-(5)-5-(5)-5----|


||------------------|-----------------|-----------------|-------------------||
||o-----------------|-----------------|-----------------|------------------o||
||o-5-5-5-5-5-5-5-5-|-----------------|-----------------|------------------o||
||------------------|-5-5-5-5-5-5-5-5-|-3-3-3-3-3-3-3-3-|-7-7-7-7-5-5-5-5---||


||-----------11-----------|----------11-----------|
||o-12-12-12----12--12-12-|-------------12--12-12-|
||o-----------------------|-12-12-12--------------|
||------------------------|-----------------------|


|----------11-----------|----------14-----------||
|-------------12--12-12-|-------------12-14-11-o||
|-10-10-10--------------|-12-12-12-------------o||
|-----------------------|-----------------------||


|----------|----------|----------|-----------|
|----------|----------|----------|-----------|
|-5--------|----------|----------|-----------|
|----------|-5--------|-3--------|-7----5----|


                                                                            3x
||------------------|-----------------|-----------------|-------------------||
||o-----------------|-----------------|-----------------|------------------o||
||o-5-5-5-5-5-5-5-5-|-----------------|-----------------|------------------o||
||------------------|-5-5-5-5-5-5-5-5-|-3-3-3-3-3-3-3-3-|-7-7-7-7-5-5-5-5---||


|-----------------|-----------------|-----------------|------------|
|-----------------|-----------------|-----------------|------------|
|-5-5-5-5-5-5-5-5-|-----------------|-----------------|----------5-|
|-----------------|-5-5-5-5-5-5-5-5-|-3-3-3-3-3-3-3-3-|-7----5-----|



HARRIETT  cXc
Suggest correction
What's this?
You can suggest a correction to this tab. Community and Mods will review your correction and vote to approve or reject it.
comments
We did not receive enough feedback on this tab! Please rate:
print report bad tab
1 2 3 4 5
3 comments total.
0 reply
raulhdz91 356 wrote on June 26 2006, 09:40 pm

ps para mi se puede decir que esta perfecta... buen trabajo...


-R.H.

0 reply
DaronADD 55 wrote on January 9 2007, 06:21 pm

esen la afinacion le pones standard pero lo tocas medio tono bajo y en la parte del vero esta mal una nota bro

0 reply
Kuramadevil 27 wrote on July 23 2015, 11:00 pm

Buena tab :)

guest
You may want to rate the tab now too:
select rating
Please do not post tabs as comments. Select "correction" instead!