Oops, an error
Loading. Please wait.

Fragil Tab

version 1
48,160 views 21 this week
4 commentsread comments
1 2 3 4 5
accurate
x 6
add to favorites
launch autoscroll
font size
0
reset
how to read this tab
guitar tuner
Autoscroll
slow
fast
+/-
esc
set tempo
stop
Help us to improve Ultimate-Guitar.com Take our survey!
×
Author
-------------------------------------------------------------------------------
                             FRAGIL - Allison
-------------------------------------------------------------------------------



INTRO:BAJO O GUITARRA 1
E|------------------------------------------------------|
B|------------------------------------------------------|
G|------------------------------------------------------|
D|-0-0-0-4-0-0---------4-0-0-------4-0-0-------7-0-4-0--| X2
A|---------------0-0-0--------------------0-0-0---------|
E|----------------------------3-3-3---------------------|

E|------------------------------------------------------|
B|------------------------------------------------------|
G|------------------------------------------------------|
D|-0-0-0-4-0-0---------4-0-0-------4-0-0----------------| X1
A|---------------0-0-0--------------------0-0-----------|
E|----------------------------3-3-3---------------------|

INTRO:GUITARRA 2
E|------------------------------------------------------|
B|------------------------------------------------------|
G|------------------------------------------------------|
D|-7---7---7---7---7---7---7---7---7---7---7---7--7-----|
A|---5---5---5---5---5---5---5---5---5---5---5---5--5---|
E|------------------------------------------------------|

E|-------------10---------------------------------------|
B|------------------------8------10---------------------|
G|------------------------------------------------------|
D|-0----------------------------------------------------|
A|------------------------------------------------------|
E|------------------------------------------------------|

E|-------------------|
B|-------------------|
G|-------------------|
D|--9------9--7------|
A|--9------9--7------|
E|--7------7--5------|

GUITARRA 1
E|-------------------------------------------------------|
B|-------------------------------------------------------|
G|--77777777---------------------------------------------|
D|--77777777---77777777---5555555---9999-7777------------|
A|--55555555---77777777---5555555---9999-7777------------|
E|-------------55555555---3333333---7777-5555------------|

E|-------------------------------------------------------|
B|-------------------------------------------------------|
G|--77777777---------------------------------------------|
D|--77777777---77777777---5555555------------------------|
A|--55555555---77777777---5555555------------------------|
E|-------------55555555---3333333------------------------|

E|-------------------|
B|-------------------|
G|-------------------|
D|--9------9--7------|
A|--9------9--7------|
E|--7------7--5------|

GUITARRA 2
E|-------------------------------------------------------|
B|-------------------------------------------------------|
G|-------------------------------------------------------|
D|-------------------------------------------------------|
A|-5-4-5-4-5--4-5/7-X3---7-10-9-7-10-9-7-10-9------------|
E|-------------------------------------------------------|

E|------------|
B|------------|
G|--7---------|
D|--x---------|
A|--5---------|
E|------------|

VERSO: PURO BAJEO

me como las uñas todo por tu culpa a caso no sabes que mi alma es tuya maldita la hora 
que te vi a los ojos los veo y no creo que todo es un sueño uhooo uhooo no

uhooo uhooo no
POST CORO
E|------------------------|
B|------------------------|
G|------------------------|
D|--5---5-5-5--7---7-7-7--|
A|--5---5-5-5--7---7-7-7--|
E|--3---3-3-3--5---5-5-5--|

dime otra vez que me quieres y que no te iras dime otra vez que eres mia y de nadie mas
CORO
E|-------------------------------------------------------|
B|-------------------------------------------------------|
G|--77777777---------------------------------------------|
D|--77777777---77777777---5555555---9999-7777------------|X2
A|--55555555---77777777---5555555---9999-7777------------|
E|-------------55555555---3333333---7777-5555------------|

DESPUES DEL CORO

GUITARRA 1
E|-------------------------------------------------------|
B|-------------------------------------------------------|
G|--77777777---------------------------------------------|
D|--77777777---77777777---5555555---9999-7777------------|X2
A|--55555555---77777777---5555555---9999-7777------------|
E|-------------55555555---3333333---7777-5555------------|

GUITARRA 2
E|-------------------------------------------------------|
B|-------------------------------------------------------|
G|-------------------------------------------------------|
D|-------------------------------------------------------|
A|-5-4-5-4-5--4-5/7-X3---7-10-9-7-10-9-7-10-9------------|
E|-------------------------------------------------------|

VERSO2:BAJEO

me encantan tus ojos que son como el cielo los veo y no creo que pueda tenerlos y estoy 
el cielo y me voy al infierno todo por tu cuerpo maldito el deseo

uhooo uhooo no
POST CORO
E|------------------------|
B|------------------------|
G|------------------------|
D|--5---5-5-5--7---7-7-7--|
A|--5---5-5-5--7---7-7-7--|
E|--3---3-3-3--5---5-5-5--|

dime otra vez que me quieres y que no te iras dime otra vez que eres mia y de nadie mas
CORO
E|-------------------------------------------------------|
B|-------------------------------------------------------|
G|--77777777---------------------------------------------|
D|--77777777---77777777---5555555---9999-7777------------|X2
A|--55555555---77777777---5555555---9999-7777------------|
E|-------------55555555---3333333---7777-5555------------|

BRIDGE:GUITARRA 1
E|------------------------------------------------------|
B|------------------------------------------------------|
G|------------------------------------------------------|
D|-0-0-0-4-0-0---------4-0-0-------4-0-0-------7-0-4-0--| X2
A|---------------0-0-0--------------------0-0-0---------|
E|----------------------------3-3-3---------------------|

BRIDGE:GUITARRA 2
E|------------------------------------------------------|
B|------------------------------------------------------|
G|--7---7/9---9/4---4/12--11----------------------------|
D|--x---x/x---x/x---x/x---x-----------------------------|
A|--5---5/7---7/2---2/10--9-----------------------------|
E|------------------------------------------------------|

E|-------------------------------|
B|-------------------------------|
G|--7---7/9---9/11--11/12--11--7-|
D|--x---x/x---x/x--- x/x---x---x-|
A|--5---5/7---7/9--- 9/10--9---5-|
E|-------------------------------|

dime otra vez que me quieres y que no te iras
POST CORO
E|-----------------------------|
B|-----------------------------|
G|--7--------------------------|
D|--7--7--5--9--7--------------|
A|--5--7--5--9--7--------------|
E|-----5--3--7--5--------------|

dime otra vez que me quieres y que no te iras dime otra vez que eres mia y de nadie mas
CORO
E|-------------------------------------------------------|
B|-------------------------------------------------------|
G|--77777777---------------------------------------------|
D|--77777777---77777777---5555555---9999-7777------------|X4
A|--55555555---77777777---5555555---9999-7777------------|
E|-------------55555555---3333333---7777-5555------------|

GUITARRA 2
E|-------------------------------------------------------|
B|-------------------------------------------------------|
G|-------------------------------------------------------|
D|-------------------------------------------------------|X2
A|-5-4-5-4-5--4-5/7-X3---7-10-9-7-10-9-7-10-9------------|
E|-------------------------------------------------------|

que me quieres y que no te iras
E|------|
B|------|
G|------|
D|--5---|
A|--5---|
E|--3---|

http://www.myspace.com/allison
Suggest correction
comments
print report bad tab
4 comments total. Showing first comments.
0 reply
rorro15 52 wrote on June 22 2006, 11:31 am

pss la neta si esta rifadita tu tab y tambien la de motel de dime ven pero pss ya saca el solo no de la otra va pss yo te puse 5 estrellas kamara

0 reply
rikardo182 60 wrote on July 5 2006, 09:21 pm

asi es el intro completo:

E|------------------------------------------------------|
B|------------------------------------------------------|
G|------------------------------------------------------|
D|-0-0-0-4-0-0---------4-0-0-------4-0-0-------7-0-4-0-0-| X2
A|---------------0-0-0--------------------0-0-0-------4--|
E|----------------------------3-3-3---------------------|

0 reply
poncho romance 10 wrote on July 9 2006, 09:06 pm

creo q si es la correcta y esta bien camara q se vea q los liristas de Mexico van en ascenso no?

guest
You may want to rate the tab now too:
select rating
Wanna post a correction for this tab? Suggest correction