Oops, an error
Loading. Please wait.

Fragil bass

version 2
version 2
by Allison
1,644 views 1 this week
2 commentsread comments
1 2 3 4 5
1 last vote to show rating
add to favorites
×
Save as Personal and add changes to this tab that will be seen only by you. Learn more ›
×
You can save this tab as Personal to edit and correct it or add notes. All changes will be seen only by you. Learn more »
launch autoscroll
font size
0
reset
guitar tuner
edit
Autoscroll
slow
fast
+/-
esc
set tempo
stop
Author
Difficulty
ESTE BAJEO CREO Q ESTA CORRECTO Y D ACUERDO A LA CANCION ALGUN COMENTARIO A
Jesussuburbia@hotmail.com

G------------------|
D------------------|
A---5--------------| X2
E------5--3--7--5--|

G----------------|
D----------------|
A----------------|
E------9--9-7----|

G--------------------------------------------|
D--------------------------------------------|
A----55555555--------------------------------|
E-------------55555555--33333333--7777--5555-|

G---------------------------------------|
D---------------------------------------|
A----55555555---------------------------|
E-------------55555555--33333333--77--5-|

G------------------|
D------------------|
A---5--------------| X4
E------5--3--7--5--|

G--------------------|
D--------------------|
A--------------------|
E---3--3--3--3--5--5-|

G--------------------------------------------|
D--------------------------------------------|
A----55555555--------------------------------|
E-------------55555555--33333333--7777--5555-|

G--------------------------------------------|
D--------------------------------------------|
A----55555555--------------------------------|
E-------------55555555--33333333--7777--5555-|

G--------------------------------------------|
D--------------------------------------------|
A----55555555--------------------------------|
E-------------55555555--33333333--7777--5555-|

G---------------------------------------|
D---------------------------------------|
A----55555555---------------------------|
E-------------55555555--33333333--77--5-|

G-----------------------|
D-----------------------|
A---5-5-----------------| X2
E------5-5-3-3-7-7-5-5--|

G--------------------|
D--------------------|
A--------------------|
E---3--3--3--3--5--5-|

G--------------------------------------------|
D--------------------------------------------|
A----55555555--------------------------------|
E-------------55555555--33333333--7777--5555-|

G--------------------------------------------|
D--------------------------------------------|
A----55555555--------------------------------|
E-------------55555555--33333333--7777--5555-|

G--------------------------|
D--------------------------|
A---555--------------------|
E-------555--333--777--555-|

G-----------------|
D-----------------|
A---5-------------|
E------5--3--7--5-|

G--------------------|
D--------------------|
A--------------------|
E---3--3--3--3--5--5-|

G--------------------------------------------|
D--------------------------------------------|
A----55555555--------------------------------|
E-------------55555555--33333333--7777--5555-|

G---------------------------------------|
D---------------------------------------|
A----55555555---------------------------|
E-------------55555555--33333333--77--5-|

G--------------------------------------------|
D--------------------------------------------|
A----55555555--------------------------------|
E-------------55555555--33333333--7777--5555-|

G------------------------------------------|
D------------------------------------------|
A----55555555------------------------------|
E-------------55555555--33333333--7--5--3--|
Suggest correction
Creating personal tab
Creating personal tab
You can edit any tab online and save it as your Personal.

You can edit, replace or remove any tab part or add personal notes – all changes will be seen only by you.

Personal tabs can be accessed anytime from any device, even offline.
Learn more »
Give kudos to tab author, rate the tab!
1 2 3 4 5
comments
print report bad tab
2 comments total.
0 reply
hardver 10 Nov 09, 2006 02:57 PM

Q onda wey creo q esta mal y tambien suena mal va wey

0 reply
mxggot13 115 Feb 16, 2008 09:28 PM

bad

guest
You may want to rate the tab now too:
select rating
Wanna post a correction for this tab? Suggest correction