Oops, an error
Loading. Please wait.

Fragil tab

version 2
by Allison
3,176 views 1 this week
5 commentsread comments
1 2 3 4 5
x 4
add to favorites
×
Save as Personal and add changes to this tab that will be seen only by you. Learn more ›
×
You can save this tab as Personal to edit and correct it or add notes. All changes will be seen only by you. Learn more »
launch autoscroll
font size
0
reset
how to read this tab
guitar tuner
edit
Autoscroll
slow
fast
+/-
esc
set tempo
stop
Author
Difficulty
Ésta es una rola muy chingona de un grupo llamado Allison que empezó en el underground, 
muchas otras bandas, pero con su esfuerzo han logrado salir adelante.
El Nivel es muy facil, Está perfecta la tablatura segun yo. Escuchen la rola para tocarla

Gtr I (E A D G B E) - 'Distortion Guitar/lead'
Gtr II (E A D G B E) - 'Distortion Guitar/rithm'


  Q=140
 4/4
  Gtr I
|-----|Se esperan sin tocar 7 compases, que van con bajo
|-----|
|-----|You wait until guitar starts.
|-----|
|-----|
|-----|


  Gtr I
  PM------------------------------------------------------------------------|
|-----------------|------------------|-----------------|--------------------|
|-----------------|------------------|-----------------|--------------------|
|-----------------|------------------|-----------------|--------------------|
|-7---7---7---7---|--7---7---7---7---|-7---7---7---7---|--7---7---7---7-----|
|---5---5---5---5-|----5---5---5---5-|---5---5---5---5-|----5---5---5---5---|
|-----------------|------------------|-----------------|--------------------|
|
| Gtr II
|-----------------|-10---------------|-----------------|------------------|
|-----------------|------------------|-8---------------|-10---------------|
|-----------------|------------------|-----------------|------------------|
|-0---------------|------------------|-----------------|------------------|
|-----------------|------------------|-----------------|------------------|
|-----------------|------------------|-----------------|------------------|


  PM---------------------------------------------------------------------|
|-----------------|------------------|-----------------|-----------------|
|-----------------|------------------|-----------------|-----------------|
|-----------------|------------------|-----------------|-----------------|
|-7---7---7---7---|--7---7---7---7---|-7---7---7---7---|-9--(9)-9--7-----|
|---5---5---5---5-|----5---5---5---5-|---5---5---5---5-|-9--(9)-9--7-----|
|-----------------|------------------|-----------------|-7--(7)-7--5-----|
|
|-----------------|-10---------------|-----------------|---------------|
|-----------------|------------------|-8---------------|---------------|
|-----------------|------------------|-----------------|---------------|
|-0---------------|------------------|-----------------|-9--(9)-9--7---|
|-----------------|------------------|-----------------|-9--(9)-9--7---|
|-----------------|------------------|-----------------|-7--(7)-7--5---|


  Gtr II
|-------------------|-------------------|
|-------------------|-------------------|
|-------------------|-------------------|
|-------------------|-------------------|
|-5-4-5-4-5-5-4-5-7-|-5-4-5-4-5-5-4-5-7-|
|-------------------|-------------------|
|
|-------------------|-------------------|
|-------------------|-------------------|
|-7-7-7-7-7-7-7-7---|-------------------|
|-7-7-7-7-7-7-7-7---|-7-7-7-7-7-7-7-7---|
|-5-5-5-5-5-5-5-5---|-7-7-7-7-7-7-7-7---|
|-------------------|-5-5-5-5-5-5-5-5---|


|-------------------|---------------------|
|-------------------|---------------------|
|-------------------|---------------------|
|-------------------|---------------------|
|-5-4-5-4-5-5-4-5-7-|-10-9-7-10-9-7-10-9--|
|-------------------|---------------------|
|
|-------------------|---------------------|
|-------------------|---------------------|
|-------------------|---------------------|
|-5-5-5-5-5-5-5-5---|--9-9-9--9-7-7--7-7--|
|-5-5-5-5-5-5-5-5---|--9-9-9--9-7-7--7-7--|
|-3-3-3-3-3-3-3-3---|--7-7-7--7-5-5--5-5--|


|-------------------|-------------------|-------------------|---------------|
|-------------------|-------------------|-------------------|---------------|
|-------------------|-------------------|-------------------|---------------|
|-------------------|-------------------|-------------------|-9--(9)-9-7----|
|-5-4-5-4-5-5-4-5-7-|-5-4-5-4-5-5-4-5-7-|-5-4-5-4-5-5-4-5-7-|-9--(9)-9-7----|
|-------------------|-------------------|-------------------|-7--(7)-7-5----|
|
|-------------------|-------------------|-------------------|---------------|
|-------------------|-------------------|-------------------|---------------|
|-7-7-7-7-7---7-7-7-|-------------------|-------------------|---------------|
|-7-7-7-7-7---7-7-7-|-7-7-7-7-7---7-7-7-|-5-5-5-5-5---5-5-5-|-9--(9)-9-7----|
|-5-5-5-5-5---5-5-5-|-7-7-7-7-7---7-7-7-|-5-5-5-5-5---5-5-5-|-9--(9)-9-7----|
|-------------------|-5-5-5-5-5---5-5-5-|-3-3-3-3-3---3-3-3-|-7--(7)-7-5----|


|----------|-----|
|----------|-----|
|-7--------|-----|
|-7--------|-----|
|-5--------|-----|
|----------|-----|
|
|----------|-----|
|----------|-----|
|-7--------|-----|
|-7--------|-----|
|-5--------|-----|
|----------|-----|


|--------------------|-----------------------|
|--------------------|-----------------------|
|--------------------|-----------------------|
|-5----5-(5)-5-(5)-5-|-7----7-(7)-7-(7)-7----|
|-5----5-(5)-5-(5)-5-|-7----7-(7)-7-(7)-7----|
|-3----3-(3)-3-(3)-3-|-5----5-(5)-5-(5)-5----|
|
|--------------------|-----------------------|
|--------------------|-----------------------|
|--------------------|-----------------------|
|-5----5-(5)-5-(5)-5-|-7----7-(7)-7-(7)-7----|
|-5----5-(5)-5-(5)-5-|-7----7-(7)-7-(7)-7----|
|-3----3-(3)-3-(3)-3-|-5----5-(5)-5-(5)-5----|


||------------------|-----------------|-----------------|-----------------||
||o-----------------|-----------------|-----------------|----------------o||
||--7-7-7-7-7-7-7-7-|-----------------|-----------------|-----------------||
||--7-7-7-7-7-7-7-7-|-7-7-7-7-7-7-7-7-|-5-5-5-5-5-5-5-5-|-9-9-9-9-7-7-7-7-||
||o-5-5-5-5-5-5-5-5-|-7-7-7-7-7-7-7-7-|-5-5-5-5-5-5-5-5-|-9-9-9-9-7-7-7-7o||
||------------------|-5-5-5-5-5-5-5-5-|-3-3-3-3-3-3-3-3-|-7-7-7-7-5-5-5-5-||
|
||------------------|-----------------|-----------------|-----------------||
||o-----------------|-----------------|-----------------|----------------o||
||--7-7-7-7-7-7-7-7-|-----------------|-----------------|-----------------||
||--7-7-7-7-7-7-7-7-|-7-7-7-7-7-7-7-7-|-5-5-5-5-5-5-5-5-|-9-9-9-9-7-7-7-7-||
||o-5-5-5-5-5-5-5-5-|-7-7-7-7-7-7-7-7-|-5-5-5-5-5-5-5-5-|-9-9-9-9-7-7-7-7o||
||------------------|-5-5-5-5-5-5-5-5-|-3-3-3-3-3-3-3-3-|-7-7-7-7-5-5-5-5-||


|-------------------|-------------------|
|-------------------|-------------------|
|-------------------|-------------------|
|-------------------|-------------------|
|-5-4-5-4-5-5-4-5-7-|-5-4-5-4-5-5-4-5-7-|
|-------------------|-------------------|
|
|-------------------|-------------------|
|-------------------|-------------------|
|-7-7-7-7-7---7-7-7-|-------------------|
|-7-7-7-7-7---7-7-7-|-7-7-7-7-7---7-7-7-|
|-5-5-5-5-5---5-5-5-|-7-7-7-7-7---7-7-7-|
|-------------------|-5-5-5-5-5---5-5-5-|


|-------------------|---------------------|
|-------------------|---------------------|
|-------------------|---------------------|
|-------------------|---------------------|
|-5-4-5-4-5-5-4-5-7-|-10-9-7-10-9-7-10-9--|
|-------------------|---------------------|
|
|-------------------|---------------------|
|-------------------|---------------------|
|-------------------|---------------------|
|-5-5-5-5-5---5-5-5-|--9-9-9--9-7-7--7-7--|
|-5-5-5-5-5---5-5-5-|--9-9-9--9-7-7--7-7--|
|-3-3-3-3-3---3-3-3-|--7-7-7--7-5-5--5-5--|


|-------------------|-------------------|
|-------------------|-------------------|
|-------------------|-------------------|
|-------------------|-------------------|
|-5-4-5-4-5-5-4-5-7-|-5-4-5-4-5-5-4-5-7-|
|-------------------|-------------------|
|
|-------------------|-------------------|
|-------------------|-------------------|
|-7-7-7-7-7---7-7-7-|-------------------|
|-7-7-7-7-7---7-7-7-|-7-7-7-7-7---7-7-7-|
|-5-5-5-5-5---5-5-5-|-7-7-7-7-7---7-7-7-|
|-------------------|-5-5-5-5-5---5-5-5-|


|-------------------|---------------------|
|-------------------|---------------------|
|-------------------|---------------------|
|-------------------|---------------------|
|-5-4-5-4-5-5-4-5-7-|-10-9-7-10-9-7-10-9--|
|-------------------|---------------------|
|
|-------------------|---------------------|
|-------------------|---------------------|
|-------------------|---------------------|
|-5-5-5-5-5---5-5-5-|--9-9-9--9-7-7--7-7--|
|-5-5-5-5-5---5-5-5-|--9-9-9--9-7-7--7-7--|
|-3-3-3-3-3---3-3-3-|--7-7-7--7-5-5--5-5--|


|----------|-----|
|----------|-----|
|-7--------|-----|
|-7--------|-----|
|-5--------|-----|
|----------|-----|
|
|----------|-----|
|----------|-----|
|-7--------|-----|
|-7--------|-----|
|-5--------|-----|
|----------|-----|


|--------------------|-----------------------|
|--------------------|-----------------------|
|--------------------|-----------------------|
|-5----5-(5)-5-(5)-5-|-7----7-(7)-7-(7)-7----|
|-5----5-(5)-5-(5)-5-|-7----7-(7)-7-(7)-7----|
|-3----3-(3)-3-(3)-3-|-5----5-(5)-5-(5)-5----|
|
|--------------------|-----------------------|
|--------------------|-----------------------|
|--------------------|-----------------------|
|-5----5-(5)-5-(5)-5-|-7----7-(7)-7-(7)-7----|
|-5----5-(5)-5-(5)-5-|-7----7-(7)-7-(7)-7----|
|-3----3-(3)-3-(3)-3-|-5----5-(5)-5-(5)-5----|


|-----------------|-----------------|-----------------|-----------------|
|-----------------|-----------------|-----------------|-----------------|
|-7-7-7-7-7-7-7-7-|-----------------|-----------------|-----------------|
|-7-7-7-7-7-7-7-7-|-7-7-7-7-7-7-7-7-|-5-5-5-5-5-5-5-5-|-9-9-9-9-7-7-7-7-|
|-5-5-5-5-5-5-5-5-|-7-7-7-7-7-7-7-7-|-5-5-5-5-5-5-5-5-|-9-9-9-9-7-7-7-7-|
|-----------------|-5-5-5-5-5-5-5-5-|-3-3-3-3-3-3-3-3-|-7-7-7-7-5-5-5-5-|
|
|-----------------|-----------------|-----------------|-----------------|
|-----------------|-----------------|-----------------|-----------------|
|-7-7-7-7-7-7-7-7-|-----------------|-----------------|-----------------|
|-7-7-7-7-7-7-7-7-|-7-7-7-7-7-7-7-7-|-5-5-5-5-5-5-5-5-|-9-9-9-9-7-7-7-7-|
|-5-5-5-5-5-5-5-5-|-7-7-7-7-7-7-7-7-|-5-5-5-5-5-5-5-5-|-9-9-9-9-7-7-7-7-|
|-----------------|-5-5-5-5-5-5-5-5-|-3-3-3-3-3-3-3-3-|-7-7-7-7-5-5-5-5-|


|-----------------|-----------------|-----------------|-----------------|
|-----------------|-----------------|-----------------|-----------------|
|-7-7-7-7-7-7-7-7-|-----------------|-----------------|-----------------|
|-7-7-7-7-7-7-7-7-|-7-7-7-7-7-7-7-7-|-5-5-5-5-5-5-5-5-|-9-9-9-9-7-7-7-7-|
|-5-5-5-5-5-5-5-5-|-7-7-7-7-7-7-7-7-|-5-5-5-5-5-5-5-5-|-9-9-9-9-7-7-7-7-|
|-----------------|-5-5-5-5-5-5-5-5-|-3-3-3-3-3-3-3-3-|-7-7-7-7-5-5-5-5-|
|
|-----------------|-----------------|-----------------|-----------------|
|-----------------|-----------------|-----------------|-----------------|
|-7-7-7-7-7-7-7-7-|-----------------|-----------------|-----------------|
|-7-7-7-7-7-7-7-7-|-7-7-7-7-7-7-7-7-|-5-5-5-5-5-5-5-5-|-9-9-9-9-7-7-7-7-|
|-5-5-5-5-5-5-5-5-|-7-7-7-7-7-7-7-7-|-5-5-5-5-5-5-5-5-|-9-9-9-9-7-7-7-7-|
|-----------------|-5-5-5-5-5-5-5-5-|-3-3-3-3-3-3-3-3-|-7-7-7-7-5-5-5-5-|


|--------------|--------------|----------------|-----------|
|--------------|--------------|----------------|-----------|
|-7----(7)--7--|-9----(9)--9--|-4----(4)--4----|-12--11----|
|-7----(7)--7--|-9----(9)--9--|-4----(4)--4----|-12--11----|
|-5----(5)--5--|-7----(7)--7--|-2----(2)--2----|-10---9----|
|--------------|--------------|----------------|-----------|


|--------------|--------------|----------------------|-------|
|--------------|--------------|----------------------|-------|
|-7----(7)--7--|-9----(9)--9--|-11----(11)-11--12----|-11----|
|-7----(7)--7--|-9----(9)--9--|-11----(11)-11--12----|-11----|
|-5----(5)--5--|-7----(7)--7--|--9-----(9)--9--10----|--9----|
|--------------|--------------|----------------------|-------|


|----------|----------|----------|-----------|
|----------|----------|----------|-----------|
|-7--------|----------|----------|-----------|
|-7--------|-7--------|-5--------|-9----7----|
|-5--------|-7--------|-5--------|-9----7----|
|----------|-5--------|-3--------|-7----5----|


|-----------------|-----------------|-----------------|-----------------|
|-----------------|-----------------|-----------------|-----------------|
|-7-7-7-7-7-7-7-7-|-----------------|-----------------|-----------------|
|-7-7-7-7-7-7-7-7-|-7-7-7-7-7-7-7-7-|-5-5-5-5-5-5-5-5-|-9-9-9-9-7-7-7-7-|
|-5-5-5-5-5-5-5-5-|-7-7-7-7-7-7-7-7-|-5-5-5-5-5-5-5-5-|-9-9-9-9-7-7-7-7-|
|-----------------|-5-5-5-5-5-5-5-5-|-3-3-3-3-3-3-3-3-|-7-7-7-7-5-5-5-5-|
|
|-----------------|-----------------|-----------------|-----------------|
|-----------------|-----------------|-----------------|-----------------|
|-7-7-7-7-7-7-7-7-|-----------------|-----------------|-----------------|
|-7-7-7-7-7-7-7-7-|-7-7-7-7-7-7-7-7-|-5-5-5-5-5-5-5-5-|-9-9-9-9-7-7-7-7-|
|-5-5-5-5-5-5-5-5-|-7-7-7-7-7-7-7-7-|-5-5-5-5-5-5-5-5-|-9-9-9-9-7-7-7-7-|
|-----------------|-5-5-5-5-5-5-5-5-|-3-3-3-3-3-3-3-3-|-7-7-7-7-5-5-5-5-|


|-----------------|-----------------|-----------------|-----------------|
|-----------------|-----------------|-----------------|-----------------|
|-7-7-7-7-7-7-7-7-|-----------------|-----------------|-----------------|
|-7-7-7-7-7-7-7-7-|-7-7-7-7-7-7-7-7-|-5-5-5-5-5-5-5-5-|-9-9-9-9-7-7-7-7-|
|-5-5-5-5-5-5-5-5-|-7-7-7-7-7-7-7-7-|-5-5-5-5-5-5-5-5-|-9-9-9-9-7-7-7-7-|
|-----------------|-5-5-5-5-5-5-5-5-|-3-3-3-3-3-3-3-3-|-7-7-7-7-5-5-5-5-|
|
|-----------------|-----------------|-----------------|-----------------|
|-----------------|-----------------|-----------------|-----------------|
|-7-7-7-7-7-7-7-7-|-----------------|-----------------|-----------------|
|-7-7-7-7-7-7-7-7-|-7-7-7-7-7-7-7-7-|-5-5-5-5-5-5-5-5-|-9-9-9-9-7-7-7-7-|
|-5-5-5-5-5-5-5-5-|-7-7-7-7-7-7-7-7-|-5-5-5-5-5-5-5-5-|-9-9-9-9-7-7-7-7-|
|-----------------|-5-5-5-5-5-5-5-5-|-3-3-3-3-3-3-3-3-|-7-7-7-7-5-5-5-5-|


|-------------------|-------------------|
|-------------------|-------------------|
|-------------------|-------------------|
|-------------------|-------------------|
|-5-4-5-4-5-5-4-5-7-|-5-4-5-4-5-5-4-5-7-|
|-------------------|-------------------|
|
|-------------------|-------------------|
|-------------------|-------------------|
|-7-7-7-7-7---7-7-7-|-------------------|
|-7-7-7-7-7---7-7-7-|-7-7-7-7-7---7-7-7-|
|-5-5-5-5-5---5-5-5-|-7-7-7-7-7---7-7-7-|
|-------------------|-5-5-5-5-5---5-5-5-|


|-------------------|---------------------|
|-------------------|---------------------|
|-------------------|---------------------|
|-------------------|---------------------|
|-5-4-5-4-5-5-4-5-7-|-10-9-7-10-9-7-10-9--|
|-------------------|---------------------|
|
|-------------------|---------------------|
|-------------------|---------------------|
|-------------------|---------------------|
|-5-5-5-5-5---5-5-5-|--9-9-9--9-7-7--7-7--|
|-5-5-5-5-5---5-5-5-|--9-9-9--9-7-7--7-7--|
|-3-3-3-3-3---3-3-3-|--7-7-7--7-5-5--5-5--|


|-------------------|-------------------|-------------------|-------------|
|-------------------|-------------------|-------------------|-------------|
|-------------------|-------------------|-------------------|-----------7-|
|-------------------|-------------------|-------------------|-9----7----7-|
|-5-4-5-4-5-5-4-5-7-|-5-4-5-4-5-5-4-5-7-|-5-4-5-4-5-5-4-5-7-|-9----7----5-|
|-------------------|-------------------|-------------------|-7----5------|
|
|-------------------|-------------------|-------------------|-------------|
|-------------------|-------------------|-------------------|-------------|
|-7-7-7-7-7---7-7-7-|-------------------|-------------------|-----------7-|
|-7-7-7-7-7---7-7-7-|-7-7-7-7-7---7-7-7-|-5-5-5-5-5---5-5-5-|-9----7----7-|
|-5-5-5-5-5---5-5-5-|-7-7-7-7-7---7-7-7-|-5-5-5-5-5---5-5-5-|-9----7----5-|
|-------------------|-5-5-5-5-5---5-5-5-|-3-3-3-3-3---3-3-3-|-7----5------|

Esta tablatura se la dedico a Harriett, mi banda, en especial a lalo que le gusta mucho esta rola. CxC

            
            
Suggest correction
Creating personal tab
Creating personal tab
You can edit any tab online and save it as your Personal.

You can edit, replace or remove any tab part or add personal notes – all changes will be seen only by you.

Personal tabs can be accessed anytime from any device, even offline.
Learn more »
comments
print report bad tab
5 comments total. Showing first comments.
0 reply
alex alvarez 833 Jun 16, 2006 10:58 AM

ta buena

0 reply
MissMurder666 10 Jul 03, 2006 04:43 PM

quiubo we soi erick, ps esta bien pero el principio no me sono mucho haber si luego me ayudas.

0 reply
Punkemohxcgirl 10 Jul 27, 2006 02:06 PM

ke onda!!!!! pues.. alguien ke me explike mas o menos la tab please porke me urge sakarla y a varias kosas no le entiendo..... ahi les dejo mi messenger.... lilianarabago@hotmail.com tanks!!!!

guest
You may want to rate the tab now too:
select rating
Wanna post a correction for this tab? Suggest correction