Oops, an error
Loading. Please wait.

Fragil tab

version 4
by Allison
1,841 views 1 this week
no commentswrite comment
1 2 3 4 5
3 more votes to show rating
add to favorites
×
Save as Personal and add changes to this tab that will be seen only by you. Learn more ›
×
You can save this tab as Personal to edit and correct it or add notes. All changes will be seen only by you. Learn more »
launch autoscroll
font size
0
reset
how to read this tab
guitar tuner
edit
Autoscroll
slow
fast
+/-
esc
set tempo
stop
Difficulty
intermediate
esta musica esta un 99,9% correcta, espero que les guste tarde algun tiempo intentando
los acordes, punteo, etc... es mi 5ta tablatura introdujida en esta pagina web que me la
ingeresar! disfruten ; ) algun comentario a: cyber_ecuatoriano@mac.com

Introduccion:
E------------------------------------------------|
B------------------------------------------------|
G------------------------------------------------|
D--0-4-0-----4-0----0-5--0------7-0-4-0----------| x 2
A-5-5-----0---5----0----5---0--------------------|
E--------5-5------3--------5-5-------------------|

E-----------------------------------------------------|
B-----------------------------------------------------|
G-----------------------------------------------------|
D--0-4-0-----4-0----0-5--0--9---9-7-------------- x 1-|
A-5-5-----0---5----0----5---9---9-7-------------------|
E--------5-5------3---------7---7-5----12/5-----------|


Guitarra 2 0:07
e---------------------------------------------------|
B---------------------------------------------------|
G---------------------------------------------------|
D-7---7---7---7---7---7---7---7---7---7---7---------|
A---5---5---5---5---5---5---5---5---5---5-----------| x 3
E---------------------------------------------------|
PM *****************************************

Termina
e--------------------|
B--------------------|
G--------------------|
D-7/12---------------|
A--------------------|
E--------------------|


Guitarra 3 0:07             0:16

e----------------------------------------------------------|
B--------15//----------------15//--------------------------|
G-7///-------14------------------14//----------------------|
D-7///-----------------------------------------------------|
A-5///------------------------------------------------ x 3-|
E----------------------------------------------------------|

Interludio

Guitarra 1 (Seguir el ritmo de la guitarra 2 para el rageo)
Parte 1
e-----------------------------------------------------|
B-----------------------------------------------------|
G--77777777-------------------------------------------|
D--77777777--77777777--55555555--9999--7777-----------| x 1
A--55555555--77777777--55555555--9999--7777-----------|
E------------55555555--33333333--7777--5555-----------|
PM ********  ********  ********  ****  *****
Parte 2
e-------------------------------------------------|
B-------------------------------------------------|
G--77777777---------------------------------------|
D--77777777--77777777--55555555--9--9-7-----------|
A--55555555--77777777--55555555--9--9-7-----------| x 1
E------------55555555--33333333--7--7-5-----------|
PM ********  ********  ********

Interludio (muy rapido)
Guitarra 2
Parte 1
e----------------------------------------------------------------------|
B----------------------------------------------------------------------|
G-7-6/7-6/7--6/7/9-7-6/7-6/7-6/7/9-7-6/7-6/7-6/7/9-12/11-9-12/11-9-7/6-|
D-x-x-x-x-x--x-x-x-x-x-x-x-x-x-x-x-x-x-x-x-x-x-x-x-x /x--x-x /x--x-X/X-|
A-5-4/5-4/5--4/5/7-5-4/5-4/5-4/5/7-5-4/5-4/5-4/5/7-11/10-7-11/10-7-5/4-|
E----------------------------------------------------------------------|
Parte 2
e------------------------------------------------------------------|
B------------------------------------------------------------------|
G-7-6/7--6/7--6/7/9--7-6/7--6/7--6/7/9--7-6/7--6/7--6/7/9---9--9-7-|
D-x-x-x--x-x--x-x-x--x-x-x--x-x--x-x-x--x-x-x--x-x--x-x-x---x--x-x-|
A-5-4/5--4/5--4/5/7--5-4/5--4/5--4/5/7--5-4/5--4/5--4/5/7---7--7-5-|
E------------------------------------------------------------------|

Solo bajo y bateria

Me como las uñas todo por tu culpa...

......
...

Empieza guitarra

Todo es un sueñoo uooo uoo nooo...
Guitarra 1 y 2
e--------------------------------------------------|
B--------------------------------------------------|
G--------------------------------------------------|
D--5--5-5-5-7--7-7-7-------------------------------|
A--5--5-5-5-7--7-7-7-------------------------------|
E--3--3-3-3-5--5-5-5-------------------------------|


CORO Dime otra vez...
Guitarra  1 y 2
e-----------------------------------------------------|
B-----------------------------------------------------|
G--77777777-------------------------------------------|
D--77777777--77777777--55555555--9999--7777-----------| x 2
A--55555555--77777777--55555555--9999--7777-----------|
E------------55555555--33333333--7777--5555-----------|

Con Palm Mute agarren el ritmo


Guitara 1 y 2 Interludio (Solo se toca la parte 1 x 2)


****Solo Bajo y Bateria****


Empieza guitarra


Guitarra 1 y 2
e--------------------------------------------------|
B--------------------------------------------------|
G--------------------------------------------------|
D--5--5-5-5-7--7-7-7-------------------------------|
A--5--5-5-5-7--7-7-7-------------------------------|
E--3--3-3-3-5--5-5-5-------------------------------|


CORO x 1


Solo

Guitarra 1

Guitarra 1 1:58
E------------------------------------------------|
B------------------------------------------------|
G------------------------------------------------|
D--0-4-0-----4-0----0-5--0------7-0-4-0-7--------| x 2
A-5-5-----0---5----0----5---0--------------------|
E--------5-5------3--------5-5-------------------|

1:58
Guitara 2 (Muy lento)
e-------------------------------------------------|
B-------------------------------------------------|
G-7///--7/99-9/44-4/1212-11-7--7/99-9/111-12-11-7-|
D-x///--x-xx-x-xx-x-x-x--x--x--x-xx-x-xx--x--x--x-|  x 1
A-5///--5/77-7/22-2/1010-9--5--5/77-7/99--10-9--5-|
E-------------------------------------------------|

Precoro
Dime otra vez..

Guitarra  1 y 2
e-----------------------------------------------------|
B-----------------------------------------------------|
G--7///////-------------------------------------------|
D--7///////--7///////--5///////--9///--7///-----------| x 1
A--5///////--7///////--5///////--9///--7///-----------|
E------------5///////--3///////--7///--5///-----------|

Guitarra 1

Termina
e--------------------|
B--------------------|
G--------------------|
D--------------------|
A--------------------|
E-12/5---------------|


Guitarra 2

Termina
e--------------------|
B--------------------|
G--------------------|
D-7/12---------------|
A--------------------|
E--------------------|

CORO x 1 Guitarra 1 y 2

Interludio x 1 Guitarra 1 y 2 (Arreglo al final)

Que no te iras ....
Final Guitarra 1
e-------------------------------------------|
B-------------------------------------------|
G-------------------------------------------|
D--5----7----5//////------------------------|
A--5----7----5//////------------------------|
E--7----5----3//////------------------------|

Final Guitarra 2
e-------------------------------------------|
B-------------------------------------------|
G--12---11---7///////-----------------------|
D--x----x----x///////-----------------------|
A--10---9----5///////-----------------------|
E-------------------------------------------|

            
            
Suggest correction
Creating personal tab
Creating personal tab
You can edit any tab online and save it as your Personal.

You can edit, replace or remove any tab part or add personal notes – all changes will be seen only by you.

Personal tabs can be accessed anytime from any device, even offline.
Learn more »
Give kudos to tab author, rate the tab!
1 2 3 4 5
comments
print report bad tab
guest
Wanna post a correction for this tab? Suggest correction