Oops, an error
Loading. Please wait.

Fragil tab

version 5
by Allison
832 views 1 this week
2 commentsread comments
1 2 3 4 5
2 more votes to show rating
add to favorites
×
Save as Personal and add changes to this tab that will be seen only by you. Learn more ›
×
You can save this tab as Personal to edit and correct it or add notes. All changes will be seen only by you. Learn more »
launch autoscroll
font size
0
reset
how to read this tab
guitar tuner
edit
Autoscroll
slow
fast
+/-
esc
set tempo
stop
Author
My mail es nim_forever7 estos son los tabs originales
esto es fragil vrsion rapida de allison

Intro:

e|:---------------------------------------------:|
B|:---------------------------------------------:|
G|:---------------------------------------------:|
D|:-----4---------4---------5---------7---------:| 
A|:-555---555-------555-------555-------5-7-5-4-:|
E|:-----------555-------333-------555-----------:|

e|:--------------------------:|-------------------------------|-----------:|
B|:--------------------------:|-------------------------------|-----------:|
G|:--------------------------:|-------------------------------|-----------:|
D|:----7---7---7---7---7---7-:|-----4---------4---------5-----|-9--9-7----:|
A|:--5---5---5---5---5---5---:|-555---555-------555-------555-|-9--9-7-4/2:|
E|:--------------------------:|-----------555-------333-------|-7--7-5----:|
P.M........................

1ra guitarra<----------------->2da guitarra al mismo tiempo   
e|:-----------------------:|   -----------------------:| \ 
B|:-----------------------:|   -----------------------:|  \    
G|:--7-6-7-6-7-7-6-7-7/9--:|   -----------------------:|   \
D|:-----------------------:|x3 -----------------------:|x3  \
A|:-----------------------:|   --5-4-5-4-5-5-4-5-5/7--:|     \
E|:-----------------------:|   -----------------------:|      \
                                                               \ 
1ra guitarra<----------------->2da guitarra al mismo tiempo    /  x2
e|:-----------------------:|   -----------------------:|      /
B|:-----------------------:|   -----------------------:|     /
G|:-12-11-9-12-11-9-12(11):|   -----------------------:|    /
D|:-----------------------:|   -----------------------:|   / 
A|:-----------------------:|   -10-9-7-10-9-7-10-9----:|  /
E|:-----------------------:|   -----------------------:| /

e|:----------:|
B|:----------:|
G|:----------:|
D|:-9--9-7---:| 
A|:-9--9-7---:|
E|:-7--7-5---:|

verso 1 :

Me como las uñas todo por tu culpa      \
a caso no sabes que mi alma es tuya      \
Maldita la hora en que te vi a los ojos  /  Puro Bajo                       
te veo y yo creo que todo es un sueño   /

Puente

e|:--------------------------:|
B|:--------------------------:|
G|:--------------------------:|
D|:--5-5555-5-5-5---7-7777-7-:| uoooo uo uo
A|:--5-5555-5-5-5---7-7777-7-:|
E|:--3-3333-3-3-3---5-5555-5-:|
P.M.   ....           ....  
 
Coro : dime otra vez...

e|:-------------------------------:|\
B|:-------------------------------:| \
G|:-77777-------------------------:|  \
D|:-77777--77777--55555--999-777--:|  /  x2
A|:-55555--77777--55555--999-777--:| /
E|:--------55555--33333--777-555--:|/

1ra guitarra<----------------->2da guitarra al mismo tiempo   
e|:-----------------------:|   -----------------------:| \ 
B|:-----------------------:|   -----------------------:|  \    
G|:--7-6-7-6-7-7-6-7-7/9--:|   -----------------------:|   \
D|:-----------------------:|x3 -----------------------:|x3  \
A|:-----------------------:|   --5-4-5-4-5-5-4-5-5/7--:|     \
E|:-----------------------:|   -----------------------:|      \
                                                               \ 
1ra guitarra<----------------->2da guitarra al mismo tiempo    /  x2Punteo
e|:-----------------------:|   -----------------------:|      /distorcionado
B|:-----------------------:|   -----------------------:|     /
G|:-12-11-9-12-11-9-12(11):|   -----------------------:|    /
D|:-----------------------:|   -----------------------:|   / 
A|:-----------------------:|   -10-9-7-10-9-7-10-9----:|  /
E|:-----------------------:|   -----------------------:| /

verso 2 :
Me encantan tus ojos que son como el cielo
los veo y no creo que pueda tenerlos
si estoy en el cielo me voy al infierno todo por tu cuerpo
maldito deseo.

Puente :x1

e|:--------------------------:|
B|:--------------------------:|
G|:--------------------------:|
D|:--5-5555-5-5-5---7-7777-7-:| uoooo uo uo
A|:--5-5555-5-5-5---7-7777-7-:|
E|:--3-3333-3-3-3---5-5555-5-:|
P.M.   ....           ....  

Coro : dime otra vez...

e|:-------------------------------:|\
B|:-------------------------------:| \
G|:-77777-------------------------:|  \
D|:-77777--77777--55555--999-777--:|  /  x2
A|:-55555--77777--55555--999-777--:| /
E|:--------55555--33333--777-555--:|/

Interlude : esto tiene n q agarrele el ritmo
e|:------------------------------------------------:|
B|:------------------------------------------------:|
G|:-7/--7/99-9/44-4/1212-11-7--7/99-9/111-12-11-7--:|
D|:-x---x-xx-x-xx-x--xx--x--x--x-xx-x-x-x--x--x-x--:|
A|:-5/--5/77-7/22-2/1010—-9-5--9/77-7/9-9-10--9-5--:| x2
E|:------------------------------------------------:|

InTro x1
e|:---------------------------------------------:|
B|:---------------------------------------------:|
G|:---------------------------------------------:|
D|:-----4---------4---------5---------7---------:| 
A|:-555---555-------555-------555-------5-7-5-4-:|
E|:-----------555-------333-------555-----------:|

Luego : 

e|:--------------------:|\
B|:--------------------:| \
G|:--7-----------------:|  \cuando dic : dime otra vez..
D|:--7--7--5--9--777---:|  /dejando sonar c/u y lento
A|:--5--7--5--9--777---:| /
E|:-----5--3--7--555---:|/

Coro : dime otra vez...

e|:-------------------------------:|\
B|:-------------------------------:| \
G|:-77777-------------------------:|  \
D|:-77777--77777--55555--999-777--:|  /  x4
A|:-55555--77777--55555--999-777--:| /
E|:--------55555--33333--777-555--:|/

la otra guitarra hace el punteo distorcionado q va despues del intro

Final : 

e|:------------------------------:|\dime otra vez q me kieres
B|:------------------------------:| \ y q noooo t iras
G|:-77777------------------------:|  \
D|:-77777--77777--55555--99-77-5-:|  /  x1
A|:-55555--77777--55555--99-77-5-:| /
E|:--------55555--33333--77-55-3-:|/

            
            
Suggest correction
Creating personal tab
Creating personal tab
You can edit any tab online and save it as your Personal.

You can edit, replace or remove any tab part or add personal notes – all changes will be seen only by you.

Personal tabs can be accessed anytime from any device, even offline.
Learn more »
Give kudos to tab author, rate the tab!
1 2 3 4 5
comments
print report bad tab
2 comments total.
0 reply
arkantos 155 Feb 28, 2007 02:25 PM

ME GUSTA TU TAB ESTA MUY BUENA

0 reply
jjzjj 10 Jun 28, 2010 10:49 PM

esta muy buena tu tab we pero ay unos errores pero aperte d eso es la mejor d aki we

guest
You may want to rate the tab now too:
select rating
Wanna post a correction for this tab? Suggest correction