Oops, an error
Loading. Please wait.

Ill Be Okay bass

52 views 1 this week
no commentswrite comment
1 2 3 4 5
2 more votes to show rating
add to favorites
×
Save as Personal and add changes to this tab that will be seen only by you. Learn more ›
×
You can save this tab as Personal to edit and correct it or add notes. All changes will be seen only by you. Learn more »
launch autoscroll
font size
0
reset
guitar tuner
edit
Autoscroll
slow
fast
+/-
esc
set tempo
stop
Author
Tabbed by: JimBlenderBR



*r = let ring




- Intro/Verse 1 - No Bass



- Verse 2:
(I kinda don’t mind it...)

G|-----------------|-----------------|-----------------|-----------------|
D|-----------------|-----------------|-----------------|-----------------|
A|-------2r--------|-----------------|-----------------|-----------------| 
E|-----------------|--------2r-------|--------4r-------|--------0r-------|


(Put off what’s important...)

G|-----------------|-----------------|-----------------|-----------------|
D|-----------------|-----------------|-----------------|-----------------|
A|-------2r--------|-----------------|-----------------|-----------------| 
E|-----------------|--------2r-------|----4r----2r-----|--------0r-------|



(Time to get braver...)

G|-----------------|-----------------|-----------------|-----------------|
D|-----------------|-----------------|-----------------|-----------------|
A|-------2r--------|-----------------|-----------------|-----------------| 
E|-----------------|--------2r-------|--------4r-------|--------0r-------|



(And I’m still alone...)

G|-----------------|-----------------|-----------------|-----------------|
D|-----------------|-----------------|-----------------|-----------------|
A|-------2r--------|-----------------|-----------------|-----------------| 
E|-----------------|--------2r-------|----4r----2r-----|--------0r-------|



- Chorus:
(Will you take me home?...)

G|-----------------|-----------------|-----------------|-----------------|
D|-----------------|-----------------|-----------------|-----------------|
A|-------2r--------|-----------------|-----------------|-----------------| 
E|-----------------|-----0----2r-----|--------4r-------|----2----0r------|



(Will you take me home?...)

G|-----------------|----4------------|-----------------|-----------------|
D|-----------------|-----------------|-----------------|-----------------|
A|--7-7-0-2r-------|--2----2---------|-----------------|-----------------| 
E|-----------------|---------2r------|----4r----2r-----|--------0r-------|




- Verse 3:
(The day is not over...)

G|-----------------|-----------------|-----------------|-----------------|
D|-----------------|-----------------|-----------------|-----------------|
A|-------2r--------|-----------------|-----------------|-----------------| 
E|-----------------|--------2r-------|-----2--4r-------|--------0r-------|



(‘cause sleep is the answer...)

G|-----------------|-----------------|-----------------|-----------------|
D|-----------------|-----------------|-----------------|-----------------|
A|----0--2r--------|-----------------|-----------------|-----------------| 
E|-----------------|--------2r-------|----2--4r---2r---|--------0r-------|



(And I am not sober...)

G|-----------------|-----------------|-----------------|-----------------|
D|-----------------|-----------------|-----------------|-----------------|
A|-------2r--------|-----------------|-----------------|-----------------| 
E|-----------------|--------2r-------|-----2--4r-------|--------0r-------|



(I thought you could tell...)

G|-----------------|-----------------|-----------------|-----------------|
D|-----------------|-----------------|-----------------|-----------------|
A|----0--2r--------|-----------------|------------9r---|-----------------| 
E|-----------------|--------2r-------|----2--4r--------|--------0r-------|



(I have nothing but patience...)

G|-----------------|-----------------|-----------------|-----------------|
D|-----------------|-4-4-4-4-4-4-4-4-|-6-6-6-6-6-6-6-6-|-2-2-2-2-2-2-2-2-|
A|-2-2-2-2-2-2-2-2-|-----------------|-----------------|-----------------| 
E|-----------------|-----------------|-----------------|-----------------|



(‘cause you’ve given me nothing...)

G|-----------------|-----------------|-----------------|-----------------|
D|-----------------|-4-4-4-4-4-4-4-4-|-6-6-6-6-4-4-4-4-|-2-2-2-2-2-2-2-2-|
A|-2-2-2-2-2-2-2-2-|-----------------|-----------------|-----------------| 
E|-----------------|-----------------|-----------------|-----------------|



(And there’s no excuse now...)


G|-----------------|-----------------|-----------------|-----------------|
D|-----------------|-4-4-4-4-4-4-4-4-|-6-6-6-6-6-6-6-6-|-----------------|
A|-2-2-2-2-2-2-2-2-|-----------------|-----------------|----5-/-7r-------| 
E|-----------------|-----------------|-----------------|-----------------|



(You take and you take...)


G|-----------------|-----------------|-----------------|-----------------|
D|-----------------|-----------------|-----------------|-----------------|
A|-------2r--------|-----------------|-----------------|-----------------| 
E|-----------------|-----0----2r-----|--------4r-------|----2----0r------|



- Chorus:
(But I’ll be okay...)


G|-----------------|-----------------|-----------------|-----------------|
D|-----------------|-----------------|-----------------|-----------------|
A|-2-2-2-2-2-2-2-2-|-----------------|-----------------|-----------------| 
E|-----------------|-2-2-2-2-2-2-2-2-|-4-4-4-4-4-4-4-4-|-0-0-0-0-0-0-0-0-|



(I’ll be okay...)

G|-----------------|-----------------|-----------------|-----------------|
D|-----------------|-----------------|-----------------|-----------------|
A|-2-2-2-2-2-2-2-2-|-----------------|---------9-9-9-9-|-----------------| 
E|-----------------|-2-2-2-2-2-2-2-2-|-4-4-4-4---------|-0-0-0-0-0-0-0-0-|



(I’ll be okay...)

G|-----------------|-----------------|-----------------|-----------------|
D|-----------------|-----------------|-----------------|-----------------|
A|-2-2-2-2-2-2-2-2-|-----------------|-----------------|-----------------| 
E|-----------------|-2-2-2-2-2-2-2-2-|-4-4-4-4-4-4-4-4-|-0-0-0-0-0-0-0-0-|




(I’ll be okay...)

G|-----------------|-----------------|-----------------|-----------------|
D|-----------------|-----------------|-----------------|-----------------|
A|-2-2-2-2-2-2-2-2-|-----------------|---------9-9-9-9-|-----------------| 
E|-----------------|-2-2-2-2-2-2-2-2-|-4-4-4-4---------|-0-0-0-0-0-0-0-0-|



(I’ll be okay...)

G|-----------------|-----------------|-----------------|-----------------|
D|-----------------|-----------------|-----------------|-----------------|
A|-2-2-2-2-2-2-2-2-|-----------------|-----------------|-----------------| 
E|-----------------|-2-2-2-2-2-2-2-2-|-4-4-4-4-4-4-4-4-|-0-0-0-0-0-0-0-0-|



(I’ll be okay...)

G|-----------------|-----------------|-----------------|-----------------|
D|-----------------|-----------------|-----------------|-----------------|
A|-2-2-2-2-2-2-2-2-|-----------------|---------9-9-9-9-|-----------------| 
E|-----------------|-2-2-2-2-2-2-2-2-|-4-4-4-4---------|-0-0-0-0-0-0-0-0-|



- Ending:

G|-----------------|-----------------|-----------------|-----------------|
D|-----------------|-----------------|-----------------|-----------------|
A|-------2r--------|-----------------|-----------------|-----------------| 
E|-----------------|--------2r-------|-----2--4r-------|--------0r-------|


G|-----------------|-----------------|-----------------|-----------------|
D|-----------------|-----------------|-----------------|-----------------|
A|----0--2r--------|-----------------|-----------------|-----------------| 
E|-----------------|--------2r-------|----2--4r---2r---|--------0r-------|


G|-----------------|-----------------|-----------------|-----------------|
D|-----------------|-----------------|-----------------|-----------------|
A|-------2r--------|-----------------|-----------------|-----------------| 
E|-----------------|--------2r-------|--------4r-------|--------0r-------|


G|-----------------|-----------------|-----------------|-----------------|
D|-----------------|-----------------|-----------------|-----------------|
A|-------2r--------|-----------------|-----------------|-----------------| 
E|-----------------|--------2r-------|----4r----2r-----|--------0r-------|

            
            
Suggest correction
Creating personal tab
Creating personal tab
You can edit any tab online and save it as your Personal.

You can edit, replace or remove any tab part or add personal notes – all changes will be seen only by you.

Personal tabs can be accessed anytime from any device, even offline.
Learn more »
Give kudos to tab author, rate the tab!
1 2 3 4 5
comments
print report bad tab
guest
You may want to rate the tab now too:
select rating
Wanna post a correction for this tab? Suggest correction