Oops, an error
Loading. Please wait.

Making It Up bass

79 views 1 this week
no commentswrite comment
1 2 3 4 5
2 more votes to show rating
add to favorites
×
Save as Personal and add changes to this tab that will be seen only by you. Learn more ›
×
You can save this tab as Personal to edit and correct it or add notes. All changes will be seen only by you. Learn more »
launch autoscroll
font size
0
reset
guitar tuner
edit
Autoscroll
slow
fast
+/-
esc
set tempo
stop
Author
Tabbed by: JimBlenderBR


- Enjoy!



- Verse 1: 
(Am I making it up?...)

G|-----------------|-----------------|-----------------|-----------------|
D|-----------------|-----------------|-----------------|-----------------|
A|-------0-0-------|-------0-0-------|-------4-4-------|-------7-7-------|
E|-----------------|-----------------|-----------------|-----------------|



(Were we ever in love?...)

G|-----------------|-----------------|-----------------|-----------------|
D|-----------------|-----------------|-----------------|-----------------|
A|-------0-0-------|-------0-0-------|-------4-4-------|-----------------|
E|-----------------|-----------------|-----------------|-------0-0-------| 



(Am I making it up?...)

G|-----------------|-----------------|-----------------|-----------------|
D|-----------------|-----------------|-----------------|-----------------|
A|-------0-0-------|-------0-0-------|-------4-4-------|-------7-7-------|
E|-----------------|-----------------|-----------------|-----------------|  



(Was I never the one?...)

G|-----------------|-----------------|-----------------|-----------------|
D|-----------------|-----------------|-----------------|-----------------|
A|-------0-0-------|-------0-0-------|-4-4-4-4-4-4-4-4-|-----------------|
E|-----------------|-----------------|-----------------|-0-0-0-0-0-0-0-0-| 




- Chorus:
(Tell me you remember...)

G|-----------------|-----------------|-----------------|-----------------|
D|-----------------|-----------------|-----------------|-----------------|
A|-2-2-2-2-2-2-2-2-|-2-2-2-2-2-2-2-2-|-7-7-7-7-7-7-7-7-|-7-7-7-7-7-7-7-7-|
E|-----------------|-----------------|-----------------|-----------------| 



(the way you used to call me your own...)

G|-----------------|-----------------|-----------------|-----------------|
D|-----------------|-----------------|-----------------|-----------------|
A|-----------------|-----------------|-----------------|-----------------|
E|-5-5-5-5-5-5-5-5-|-4-4-4-4-4-4-4-4-|-2-2-2-2-2-2-2-2-|-2-2-2-2-2-2-2-2-| 



(Tell me that I’m making it up...)

G|-----------------|-----------------|-----------------|-----------------|
D|-----------------|-----------------|-----------------|-----------------|
A|-2-2-2-2-2-2-2-2-|-2-2-2-2-2-2-2-2-|-----------------|-----------------|
E|-----------------|-----------------|-0-0-0-0-0-0-0-0-|-0-0-0-0-0-0-0-0-| 




- Post-Chorus:

G|-----------------|-----------------|-----------------|---9-9--9-11-9-9-|
D|-----------------|---------7-7-9-9-|-----6-6---------|-----------------|
A|-----0-0--0-0----|-0-0-7-7---------|----------7-7----|-----------------|
E|-----------------|-----------------|-----------------|-----------------| 

G|-----------------|-----------------|-----------------|-----------------|
D|-----------------|---------7-7-9-9-|-----6-6---------|-----------------|
A|-----0-0--0-0----|-0-0-7-7---------|----------7-7----|-----------------|
E|-----------------|-----------------|-----------------|-0-0-0-0-0-0-0-0-| 




- Verse 2:

(Am I making it up?...)

G|-----------------|-----------------|-----------------|-----------------|
D|-----------------|-----------------|-----------------|-----------------|
A|-------0-0-------|-------0-0-------|-------4-4-------|-------7-7-------|
E|-----------------|-----------------|-----------------|-----------------|



(Were we ever in love?...)

G|-----------------|-----------------|-----------------|-----------------|
D|-----------------|-----------------|-----------------|-----------------|
A|-------0-0-------|-------0-0-------|-------4-4-------|-----------------|
E|-----------------|-----------------|-----------------|-------0-0-------| 



(Am I making it up?...)

G|-----------------|-----------------|-----------------|-----------------|
D|-----------------|-----------------|-----------------|-----------------|
A|-----0-0--0-0----|-----0-0--0-0----|-2---4-4--4-4----|-----7-7--7-7----|
E|-----------------|-----------------|-----------------|---------------7-|  



(Am I making it up?...)

G|-----------------|-----------------|-----------------|-----------------|
D|-----------------|-----------------|-----------------|---------4-4-2-2-|
A|-----0-0--0-0----|-----0-0--0-0----|-2---4-4--4-4----|----7-7----------|
E|-----------------|-----------------|-----------------|-----------------| 



- Chorus:
(Tell me you remember...)

G|-----------------|-----------------|-----------------|-----------------|
D|-----------------|-----------------|-----------------|-----------------|
A|-2-2-2-2-2-2-2-2-|-2-2-2-2-2-2-2-2-|-7-7-7-7-7-7-7-7-|-7-7-7-7-7-7-7-7-|
E|-----------------|-----------------|-----------------|-----------------| 



(the way you used to call me your own...)

G|-----------------|-----------------|-----------------|-------------------------|
D|-----------------|-----------------|-----------------|-------------------------|
A|-----------------|-----------------|-----------------|-------------------------|
E|-5-5-5-5-5-5-5-5-|-4-4-4-4-4-4-4-4-|-2-2-2-2-2-2-2-2/|-14-14-14-14-14-14-14-14-| 



(Tell me you remember...)

G|-----------------|-----------------|-----------------|-----------------|
D|-----------------|-----------------|-----------------|-----------------|
A|-2-2-2-2-2-2-2-2-|-2-2-2-2-2-2-2-2-|-----------------|-----------------|
E|-----------------|-----------------|-0-0-0-0-0-0-0-0-|-0-0-0-0-0-0-0-0-| 



(the way you used to call me your own...)

G|-----------------|-----------------|-----------------|------------------|
D|-----------------|-----------------|-----------------|-0-4-4-2-2-0-0----|
A|-----------------|-----------------|-----------------|--------------4-4-|
E|-5-5-5-5-5-5-5-5-|-4-4-4-4-4-4-4-4-|-2-2-2-2-2-2-2-2-|------------------| 



(Tell me that I’m making it up...)

G|-----------------|-----------------|-----------------|-----------------|
D|-----------------|-----------------|-----------------|-----------------|
A|-2-2-2-2-2-2-2-2-|-2-2-2-2-2-2-2-2-|-----------------|-----------------|
E|-----------------|-----------------|-0-0-0-0-0-0-0-0-|-0-0-0-0-0-0-0-0-| 




- Post-Chorus:

G|-----------------|-----------------|-----------------|---9-9--9-11-9-9-|
D|-----------------|---------7-7-9-9-|-----6-6---------|-----------------|
A|-----0-0--0-0----|-0-0-7-7---------|----------7-7----|-----------------|
E|-----------------|-----------------|-----------------|-----------------| 

G|-----------------|-----------------|-----------------|-----------------|
D|-----------------|---------7-7-9-9-|-----6-6---------|-----------------|
A|-----0-0--0-0----|-0-0-7-7---------|----------7-7----|-----------------|
E|-----------------|-----------------|-----------------|-0-0-0-0-0-0-0-0-| 




- Instrumental:

G|-----------------|-----------------|-----------------|-9-9-9-9-11-11-9-9-|
D|-----------------|---------7-7-9-9-|-6-6-6-6---------|-------------------|
A|-0-0-0-0-0-0-0-0-|-0-0-7-7---------|---------7-7-7-7-|-------------------|
E|-----------------|-----------------|-----------------|-------------------| 

G|-----------------|-----------------|-----------------|-----------------|
D|-----------------|---------7-7-9-9-|-6-6-6-6---------|-----------------|
A|-0-0-0-0-0-0-0-0-|-0-0-7-7---------|---------7-7-7-7-|-----------------|
E|-----------------|-----------------|-----------------|-0-0-0-0-0-0-0-0-| 




- Bridge:
(And now that it’s over...)

G|-----------------|-----------------|-----------------|-----------------|
D|-----------------|-----------------|-----------------|-----------------|
A|-2-2-2-2-2-2-2-2-|-2-2-2-2-2-2-2-2-|-----------------|---------9-9-7-7-|
E|-----------------|-----------------|-0-0-0-0-0-0-0-0-|-0-0-0-0---------| 



(Is it all for the best?...)

G|-----------------|-----------------|-----------------|-------------------------|
D|-----------------|-----------------|-----------------|-------------------------|
A|-----------------|-----------------|-----------------|-------------------------|
E|-5-5-5-5-5-5-5-5-|-4-4-4-4-4-4-4-4-|-2-2-2-2-2-2-2-2/|-14-14-14-14-14-14-14-14-| 



(So quick to fall in love...)

G|-----------------|-----------------|-----------------|-----------------|
D|-----------------|-----------------|-----------------|-----------------|
A|-2-2-2-2-2-2-2-2-|-2-2-2-2-2-2-2-2-|-----------------|---------9-9-7-7-|
E|-----------------|-----------------|-0-0-0-0-0-0-0-0-|-0-0-0-0---------| 



(So quick to Forget...)

G|-----------------|-----------------|-----------------|-------------------------|
D|-----------------|-----------------|-----------------|-------------------------|
A|-----------------|-----------------|-----------------|-------------------------|
E|-5-5-5-5-5-5-5-5-|-4-4-4-4-4-4-4-4-|-2-2-2-2-2-2-2-2/|-14-14-14-14-14-14-14-14-| 



(Tell me you remember...)

G|-----------------|-----------------|-----------------|-----------------|
D|-----------------|-----------------|-----------------|-----------------|
A|-2-2-2-2-2-2-2-2-|-2-2-2-2-2-2-2-2-|-----------------|---------9-9-7-7-|
E|-----------------|-----------------|-0-0-0-0-0-0-0-0-|-0-0-0-0---------| 


(Tell me you remember...)
G|-----------------|-----------------|-----------------|-------------------------|
D|-----------------|-----------------|-----------------|-------------------------|
A|-----------------|-----------------|-----------------|-------------------------|
E|-5-5-5-5-5-5-5-5-|-4-4-4-4-4-4-4-4-|-2-2-2-2-2-2-2-2/|-14-14-14-14-14-14-14-14-| 



(Tell me that I'm making it up...)
G|-----------------|-----------------|-----------------|-----------------|
D|-----------------|-------------4-4-|-----------------|-----------------|
A|-2-2-2-2-2-2-2-2-|-2-2-2-2-2-2-----|-----------------|-----------------|
E|-----------------|-----------------|-0-0-0-0-0-0-0-0-|-0-0-0-0-0-0-0-0-| 



(Leave you alone...)
G|-----------------|-----------------|-------------------------|-------------------|
D|-----------------|-----------------|-------------------------|-0-4-4-2-2-0-0-----|
A|-----------------|-----------------|-------------------------|---------------4-4-|
E|-5-5-5-5-5-5-5-5-|-4-4-4-4-4-4-4-4/|-14-14-14-14-14-14-14-14-|-------------------| 



(Tell me that I'm making it up...)
G|-----------------|-----------------|-----------------|-----------------|
D|-----------------|-----------------|-----------------|-----------------|
A|-2-2-2-2-2-2-2-2-|-2-2-2-2-2-2-2-2-|-----------------|-----------------|
E|-----------------|-----------------|-0-0-0-0-0-0-0-0-|-0-0-0-0-0-0-0-0-| 



Ending:

G|-----------------|-----------------|-----------------|-9-9-9-9-11-11-9-9-|
D|-----------------|---------7-7-9-9-|-6-6-6-6---------|-------------------|
A|-0-0-0-0-0-0-0-0-|-0-0-7-7---------|---------7-7-7-7-|-------------------|
E|-----------------|-----------------|-----------------|-------------------| 

G|-----------------|-----------------|-----------------|-----------------|
D|-----------------|---------7-7-9-9-|-6-6-6-6---------|-----------------|
A|-0-0-0-0-0-0-0-0-|-0-0-7-7---------|---------7-7-7-7-|-----------------|
E|-----------------|-----------------|-----------------|-0-0-0-0-0-0-0-0-| 

            
            
Suggest correction
Creating personal tab
Creating personal tab
You can edit any tab online and save it as your Personal.

You can edit, replace or remove any tab part or add personal notes – all changes will be seen only by you.

Personal tabs can be accessed anytime from any device, even offline.
Learn more »
Give kudos to tab author, rate the tab!
1 2 3 4 5
comments
print report bad tab
guest
You may want to rate the tab now too:
select rating
Wanna post a correction for this tab? Suggest correction