Oops, an error
Loading. Please wait.

All We Needed tab

version 1
version 1

Whole song

Interactive

54 views 1 this week
no commentswrite comment
1 2 3 4 5
2 more votes to show rating
add to favorites
×
Save as Personal and add changes to this tab that will be seen only by you. Learn more ›
×
You can save this tab as Personal to edit and correct it or add notes. All changes will be seen only by you. Learn more »
launch autoscroll
font size
0
reset
how to read this tab
guitar tuner
edit
Autoscroll
slow
fast
+/-
esc
set tempo
stop
Author
Difficulty
-------------------------------------------------------------------------------
                             ALL WE NEEDED - Allister
-------------------------------------------------------------------------------
Tabbed by: JustinVR6T
E-mail: 

Tuning: E standard

***this tab does not have the timing of picking or amount of notes per section. as a guitar player i am
operating under the assumption you can figure that part out. otherwise the notes are correct***

@@I had made a mental error in the initial tab where notes on the A string were shown starting on the D
string, I have since rectified this.@@

INTRO/LEAD (slide in to the 7th fret)
e|---------------------------------------------------------------------------|
B|-----10--------------------------------------------------------------------|
G|7-9-----11~~9----9^~~------------------------------------------------------|
D|--------------12------12-11-12-9^~~----------------------------------------|
A|---------------------------------------------------------------------------|
E|---------------------------------------------------------------------------|

e|---------------------------------------------------------------------------|
B|-----10--------------------------------------------------------------------|
G|7-9-----11~~9----9^~~>>>>9h11-9--------------------------------------------|
D|--------------12-----------------------------------------------------------|
A|---------------------------------------------------------------------------|
E|---------------------------------------------------------------------------|
 (>>>> = slide to 9th. h = hammer onto the 11th. ~ = sustain. ^ = bend.)

INTRO/RHYTHM
e|---------------------------------------------------------------------------|
B|---------------------------------------------------------------------------|
G|---------------------------------------------------------------------------|
D|------777777---------------------------------------------------------------|
A|55555-555555-77777777777---------------------------------------------------|
E|33333--------55555555555---------------------------------------------------|

e|---------------------------------------------------------------------------|
B|---------------------------------------------------------------------------|
G|---------------------------------------------------------------------------|
D|------777777---------------------------------------------------------------|
A|55555-555555-77777777777-9-7-----------------------------------------------|
E|33333--------55555555555-7-5-----------------------------------------------|

VERSE 1
e|---------------------------------------------------------------------------|
B|---------------------------------------------------------------------------|
G|---------------------------------------------------------------------------|
D|----------7xxxxxx7----------9xxxxxx9---------------------------------------|
A|9xxxxxx9--5xxxxxx5-7xxxxxx5-7xxxxxx7---------------------------------------|
E|7xxxxxx7-----------5xxxxxx5------------------------------------------------|
         (x = palm mute the chord starting the muted section.)

PRE CHORUS
e|---------------------------------------------------------------------------|
B|---------------------------------------------------------------------------|
G|---------------------------------------------------------------------------|
D|----------77777777---------------------------------------------------------|
A|55555555--55555555-55555555-44444444---------------------------------------|
E|33333333-----------33333333-22222222---------------------------------------|

CHORUS
e|---------------------------------------------------------------------------|
B|---------------------------------------------------------------------------|
G|---------------------------------------------------------------------------|
D|------777777---------------------------------------------------------------|
A|55555-555555-77777777777---------------------------------------------------|
E|33333--------55555555555---------------------------------------------------|

e|---------------------------------------------------------------------------|
B|---------------------------------------------------------------------------|
G|---------------------------------------------------------------------------|
D|------777777---------------------------------------------------------------|
A|55555-555555-77777777777---------------------------------------------------|
E|33333--------55555555555---------------------------------------------------|

e|---------------------------------------------------------------------------|
B|---------------------------------------------------------------------------|
G|---------------------------------------------------------------------------|
D|-----77xx------------------------------------------------------------------|
A|55xx-55xx-77xx--99999999-555555-777777-------------------------------------|
E|33xx------55xx--77777777-333333-555555-------------------------------------|

LEAD (slide in to the 7th fret)
e|---------------------------------------------------------------------------|
B|-----10--------------------------------------------------------------------|
G|7-9-----11~~9----9^~~------------------------------------------------------|
D|--------------12------12-11-12-9^~~----------------------------------------|
A|---------------------------------------------------------------------------|
E|---------------------------------------------------------------------------|

e|---------------------------------------------------------------------------|
B|-----10--------------------------------------------------------------------|
G|7-9-----11~~9----9^~~>>>>9h11-9--------------------------------------------|
D|--------------12-----------------------------------------------------------|
A|---------------------------------------------------------------------------|
E|---------------------------------------------------------------------------|
 (>>>> = slide to 9th. h = hammer onto the 11th. ~ = sustain. ^ = bend.)

RHYTHM BEHIND LEAD
e|---------------------------------------------------------------------------|
B|---------------------------------------------------------------------------|
G|---------------------------------------------------------------------------|
D|------777777---------------------------------------------------------------|
A|55555-555555-77777777777---------------------------------------------------|
E|33333--------55555555555---------------------------------------------------|

e|---------------------------------------------------------------------------|
B|---------------------------------------------------------------------------|
G|---------------------------------------------------------------------------|
D|------777777---------------------------------------------------------------|
A|55555-555555-77777777777-9-7-----------------------------------------------|
E|33333--------55555555555-7-5-----------------------------------------------|

VERSE 2
e|---------------------------------------------------------------------------|
B|---------------------------------------------------------------------------|
G|---------------------------------------------------------------------------|
D|----------7xx77xx7----------9xx99xx9---------------------------------------|
A|9xx99xx9--5xx55xx5-7xx77xx7-7xx77xx7---------------------------------------|
E|7xx79xx7-----------5xx55xx5------------------------------------------------|
(x = palm mute the chord starting the muted section. the picking is not portrayed in tab)

PRE CHORUS
e|---------------------------------------------------------------------------|
B|---------------------------------------------------------------------------|
G|---------------------------------------------------------------------------|
D|----------77777777---------------------------------------------------------|
A|55555555--55555555-55555555-44444444---------------------------------------|
E|33333333-----------33333333-22222222---------------------------------------|

CHORUS
e|---------------------------------------------------------------------------|
B|---------------------------------------------------------------------------|
G|---------------------------------------------------------------------------|
D|------777777---------------------------------------------------------------|
A|55555-555555-77777777777---------------------------------------------------|
E|33333--------55555555555---------------------------------------------------|

e|---------------------------------------------------------------------------|
B|---------------------------------------------------------------------------|
G|---------------------------------------------------------------------------|
D|------777777---------------------------------------------------------------|
A|55555-555555-77777777777---------------------------------------------------|
E|33333--------55555555555---------------------------------------------------|

e|---------------------------------------------------------------------------|
B|---------------------------------------------------------------------------|
G|---------------------------------------------------------------------------|
D|-----77xx------------------------------------------------------------------|
A|55xx-55xx-77xx--99999999-555555-777777-------------------------------------|
E|33xx------55xx--77777777-333333-555555-------------------------------------|

BRIDGE
e|---------------------------------------------------------------------------|
B|---------------------------------------------------------------------------|
G|---------------------------------------------------------------------------|
D|---------------------------------------------------------------------------|
A|22222222-44444444-55555555-77777777----------------------------------------|
E|00000000-22222222-33333333-55555555----------------------------------------|

e|---------------------------------------------------------------------------|
B|---------------------------------------------------------------------------|
G|---------------------------------------------------------------------------|
D|-------7\\\\\--------------------------------------------------------------|
A|5\\\\\-5\\\\\-7\\\\\-------------------------------------------------------|
E|3\\\\\--------5\\\\\-------------------------------------------------------|
     (\\\\\ = hold the note and let is ride/sustain)

e|---------------------------------------------------------------------------|
B|---------------------------------------------------------------------------|
G|---------------------------------------------------------------------------|
D|-------7\\\\\--------------------------------------------------------------|
A|5\\\\\-5\\\\\-7\\\\\-------------------------------------------------------|
E|3\\\\\--------5\\\\\-------------------------------------------------------|
     (\\\\\ = hold the note and let is ride/sustain)

CHORUS/ENDING
e|---------------------------------------------------------------------------|
B|---------------------------------------------------------------------------|
G|---------------------------------------------------------------------------|
D|------777777---------------------------------------------------------------|
A|55555-555555-77777777777---------------------------------------------------|
E|33333--------55555555555---------------------------------------------------|

e|---------------------------------------------------------------------------|
B|---------------------------------------------------------------------------|
G|---------------------------------------------------------------------------|
D|------777777---------------------------------------------------------------|
A|55555-555555-77777777777---------------------------------------------------|
E|33333--------55555555555---------------------------------------------------|

e|---------------------------------------------------------------------------|
B|---------------------------------------------------------------------------|
G|---------------------------------------------------------------------------|
D|-----77xx------------------------------------------------------------------|
A|55xx-55xx-77xx--99999999-555555-777777-------------------------------------|
E|33xx------55xx--77777777-333333-555555-------------------------------------|

e|---------------------------------------------------------------------------|
B|---------------------------------------------------------------------------|
G|---------------------------------------------------------------------------|
D|------777777---------------------------------------------------------------|
A|55555-555555-77777777777---------------------------------------------------|
E|33333--------55555555555---------------------------------------------------|

e|---------------------------------------------------------------------------|
B|---------------------------------------------------------------------------|
G|---------------------------------------------------------------------------|
D|------777777---------------------------------------------------------------|
A|55555-555555-77777777777---------------------------------------------------|
E|33333--------55555555555---------------------------------------------------|

e|---------------------------------------------------------------------------|
B|---------------------------------------------------------------------------|
G|---------------------------------------------------------------------------|
D|------777777---------------------------------------------------------------|
A|55555-555555-77777777777---------------------------------------------------|
E|33333--------55555555555---------------------------------------------------|

e|---------------------------------------------------------------------------|
B|---------------------------------------------------------------------------|
G|---------------------------------------------------------------------------|
D|------777777---------------------------------------------------------------|
A|55555-555555-77777777777---------------------------------------------------|
E|33333--------55555555555---------------------------------------------------|

e|---------------------------------------------------------------------------|
B|---------------------------------------------------------------------------|
G|---------------------------------------------------------------------------|
D|-------7\\\\\--------------------------------------------------------------|
A|5\\\\\-5\\\\\-7\\\\\-------------------------------------------------------|
E|3\\\\\--------5\\\\\-------------------------------------------------------|
     (\\\\\ = hold the note and let is ride/sustain)

e|---------------------------------------------------------------------------|
B|---------------------------------------------------------------------------|
G|---------------------------------------------------------------------------|
D|-------7\\\\\--------------------------------------------------------------|
A|5\\\\\-5\\\\\-7\\\\\-------------------------------------------------------|
E|3\\\\\--------5\\\\\-------------------------------------------------------|
     (\\\\\ = hold the note and let is ride/sustain)

e|---------------------------------------------------------------------------|
B|---------------------------------------------------------------------------|
G|---------------------------------------------------------------------------|
D|-------7\\\\\--------------------------------------------------------------|
A|5\\\\\-5\\\\\-7\\\\\-------------------------------------------------------|
E|3\\\\\--------5\\\\\-------------------------------------------------------|
     (\\\\\ = hold the note and let is ride/sustain)

e|---------------------------------------------------------------------------|
B|---------------------------------------------------------------------------|
G|---------------------------------------------------------------------------|
D|-------7\\\\\--------------------------------------------------------------|
A|5\\\\\-5\\\\\-7\\\\\-------------------------------------------------------|
E|3\\\\\--------5\\\\\-------------------------------------------------------|
     (\\\\\ = hold the note and let is ride/sustain)


e|---------------------------------------------------------------------------|
B|---------------------------------------------------------------------------|
G|---------------------------------------------------------------------------|
D|---------------------------------------------------------------------------|
A|---------------------------------------------------------------------------|
E|---------------------------------------------------------------------------|


************************************

            
            
Suggest correction
Creating personal tab
Creating personal tab
You can edit any tab online and save it as your Personal.

You can edit, replace or remove any tab part or add personal notes – all changes will be seen only by you.

Personal tabs can be accessed anytime from any device, even offline.
Learn more »
Give kudos to tab author, rate the tab!
1 2 3 4 5
comments
print report bad tab
guest
You may want to rate the tab now too:
select rating
Wanna post a correction for this tab? Suggest correction