Oops, an error
Loading. Please wait.

Cant Let Go bass

version 1
version 1

Whole song

Interactive

102 views 1 this week
no commentswrite comment
1 2 3 4 5
2 more votes to show rating
add to favorites
×
Save as Personal and add changes to this tab that will be seen only by you. Learn more ›
×
You can save this tab as Personal to edit and correct it or add notes. All changes will be seen only by you. Learn more »
launch autoscroll
font size
0
reset
guitar tuner
edit
Autoscroll
slow
fast
+/-
esc
set tempo
stop
-----------------------------------------------------------------------------
                             Can't Let Go - Allister
-----------------------------------------------------------------------------
Tabbed by: BlenderBR
E-mail: fabiosignori.zero@hotmail.com

 -  Intro

G|------------------------------------------------------------------|
D|------------------------------------------------------------------|
A|---2-0---2-0---------22222222-0000000----------2222222-0000000----|
E|-0-----0-----0000000-------------------0000000--------------------|

G|------------------------------------------------------|
D|------------------------------------------------------|
A|--444444-666-777--------------------------------------|
E|-----------------55555555-55--444-222-----------------|

 -  Verse 1
(The needle spinning on this broken record feels just like...)

G|------------------------------------------------------|
D|------------------------------------------------------|
A|--444444-666-777--------------------------------------| 4x
E|-----------------55555555-55-444-222------------------|

G|------------------------------------------------------|
D|------------------------------------------------------|
A|--00000000000--1212121212-1111199998887777------------|
E|------------------------------------------------------|
Two Digit Numbers, 12 and 11

 -  Chorus 
(This voice will sing out now for the last time...)

G|---------------------------------------------------------|
D|---------------------------------------------------------|
A|---------22222222-00000000---------222222-0000000-242424-| 2x
E|-0000000-------------------0000000-----------------------|

G|----------------------------------------|
D|----------------------------------------|
A|-----------2222222--000000--------------|   2x
E|---0000000------------------------------|

 -  Verse 2
(The stories spinning from the mouths up at the bar are wearing...)

G|------------------------------------------------------|
D|------------------------------------------------------|
A|--444444-666-777--------------------------------------| 4x
E|-----------------55555555-55-444-222------------------|

G|------------------------------------------------------|
D|------------------------------------------------------|
A|--00000000000--121212121212---------------------------|
E|------------------------------------------------------|
Two Digit Number, 12

 -  Chorus 
(This voice will sing out now for the last time...)

G|---------------------------------------------------------|
D|---------------------------------------------------------|
A|---------22222222-00000000---------222222-0000000-242424-|
E|-0000000-------------------0000000-----------------------|

G|----------------------------------------------------------------|
D|----------------------------------------------------------------|
A|---------22222222-00000000---------222222-0000000-222222-121212*|
E|-0000000-------------------0000000------------------------------|
* 12, not 1-2

 - Bridge 
(I've watched these kings in battle with jealous...)

G|--------------------------------------------------------------------------|
D|--------------------------------------------------------------------------|
A|--------------------------------------------------------------------------|
E|-444444-0000000-222-4444444---000-222-4444-6666--444444-000000-222-444444-|

G|----------------------------------------------------------------|
D|----------------------------------------------------------------|
A|-222222222222-121212121212--------------------------------------|
E|----------------------------------------------------------------|

 -  Chorus 
(This voice will sing out now for the last time...)

G|---------------------------------------------------------|
D|---------------------------------------------------------|
A|---------22222222-00000000---------222222-0000000-242424-|
E|-0000000-------------------0000000-----------------------|

G|---------------------------------------------------------|
D|---------------------------------------------------------|
A|---------22222222-00000000---------222222-0000000--------|
E|-0000000-------------------0000000-----------------------|

(Can't Let Go....)

G|---------------------------------------------------------|
D|---------------------------------------------------------|
A|---------22222222-00000000---------222222-0000000--------| 2x
E|-0000000-------------------0000000-----------------------|

G|--------|
D|--------|
A|---2-0--|
E|-0------|

            
            
Suggest correction
Creating personal tab
Creating personal tab
You can edit any tab online and save it as your Personal.

You can edit, replace or remove any tab part or add personal notes – all changes will be seen only by you.

Personal tabs can be accessed anytime from any device, even offline.
Learn more »
Give kudos to tab author, rate the tab!
1 2 3 4 5
comments
print report bad tab
guest
You may want to rate the tab now too:
select rating
Wanna post a correction for this tab? Suggest correction