Oops, an error
Loading. Please wait.

If Loneliness Was Art Bass Tab

22 views 1 this week
no commentswrite comment
1 2 3 4 5
3 more votes to show rating
add to favorites
launch autoscroll
font size
0
reset
guitar tuner
Autoscroll
slow
fast
+/-
esc
set tempo
stop
Help us to improve Ultimate-Guitar.com Take our survey!
×
Author
Difficulty
novice
[Intro]
G|------------|--------------|-----------|--------------| (x2)
D|-------7----|--------------|------7----|--------------|
A|-----7----7-|-9---7-9-7----|----7----7-|-9---7-9-7----|
E|-5----------|-----------9-7|5----------|-----------9-7|

[Verse 1]
G|-----------|--------------|-----------|-------------| 
D|------7----|--------------|------7----|-------------|
A|----7----7-|-9---7-9-7----|----7----7-|-9---7-9-7---|
E|5----------|-----------9-7|5----------|-----------9-|

G|------------|--------------|-----------|------------|
D|------------|-----7-7------|-----------|-----7-7----|
A|-5---5-5--7-|---------0-4--|5---5-5--7-|----------7-|
E|------------|-5-----------5|-----------|-5----------|

G|------------|--------------|-----------|--------------| 
D|-------7----|--------------|------7----|--------------|
A|-----7----7-|-9---7-9-7----|----7----7-|-9---7-9-7----|
E|-5----------|-----------9-7|5----------|-----------9-7|

G|-----------|------------|------------|--------------|
D|-----------|-----7-7----|------------|-----7-7------|
A|5---5-5--7-|------------|-5---5-5--7-|---------0-4--|
E|-----------|-5--------5-|------------|-5-----------5|

[Chorus]
G|------7----|--------------|------7----|--------------|
D|----7----7-|-----7-7------|----7----7-|-----7-7------|
A|5----------|---------0-4--|5----------|---------0-4--|
E|-----------|-5-----------5|-----------|-5-----------5|

G|-------------|-------------|----------------|----------------|
D|-------------|-------------|----------------|----------------|
A|/7---7-7--9-\|5-----3---5--|7---------------|-5--------------|
E|-------------|----5---5---5|----------------|----------------|

G|------------|--------------|-----------|--------------| (x2) 
D|-------7----|--------------|------7----|--------------|
A|-----7----7-|-9---7-9-7----|----7----7-|-9---7-9-7----|
E|-5----------|-----------9-7|5----------|-----------9-7|

[Verse 2]
G|-----------|--------------|-----------|-------------|  
D|------7----|--------------|------7----|-------------|
A|----7----7-|-9---7-9-7----|----7----7-|-9---7-9-7---|
E|5----------|-----------9-7|5----------|-----------9-|

G|-----------|------------|------------|--------------|
D|-----------|-----7-7----|------------|-----7-7------|
A|5---5-5--7-|------------|-5---5-5--7-|---------7-4--|
E|-----------|-5--------5-|------------|-5-----------5|

[Chorus]
G|-----------|--------------|-----------|-------------|
D|-----------|-----7-7------|-----------|-----7-7-----|
A|5---5-5--7-|---------7-4--|5---5-5--7-|---------0-4-|
E|-----------|-5-----------5|-----------|-5-----------|

G|-------------|-------------|----------------|----------------|
D|-------------|-------------|----------------|----------------|
A|/7---7-7--9-\|5-----3---5--|7---------------|-5--------------|
E|-------------|----5---5---5|----------------|----------------|

G|------------|--------------|-----------|--------------| 
D|-------7----|--------------|------7----|--------------|
A|-----7----7-|-9---7-9-7----|----7----7-|-9---7-9-7----|
E|-5----------|-----------9-7|5----------|-----------9-7|

G|-----------|--------------|-----------|-------------| 
D|------7----|--------------|------7----|-------------|
A|----7----7-|-9---7-9-7----|----7----7-|-9---7-9-7---|
E|5----------|-----------9-7|5----------|-----------9-|

[Bridge]
G|--------11--11---|-------11--11---|-------11--11---|-------11--11---|
D|-----11--------11|----11--------11|----11--------11|----11--------11|
A|-9---------------|9---------------|9---------------|9---------------|
E|-----------------|----------------|----------------|----------------|

G|-------11--11---|-------11--11---|------9--9--|------9--9--|
D|----11--------11|----11--------11|----9------9|----9------9|
A|9---------------|9---------------|7-----------|7-----------|
E|----------------|----------------|------------|------------|

G|-------11--11---|-------11--11---|-----------------|-----------------|
D|----11--------11|----11--------11|--------12--12---|--------12--12---|
A|9---------------|9---------------|-----12--------12|-----12--------12|
E|----------------|----------------|10---------------|10---------------|

[Verse 3]
G|-----------|------------------|-----------|------------------| 
D|------7----|------------------|------7----|------------------|
A|0---7----7-|-9---(7-7)-9-7----|----7----7-|-9---(7-7)-9-7----|
E|-----------|---------------9-7|5----------|---------------9-7|

G|-----------|------------|------------|--------------|
D|-----------|------------|------------|-----7-7------|
A|5---5-5--7-|-4--------4-|-5---5-5--7-|---------0-4--|
E|-----------|-----5-5----|------------|-5-----------5|

[Chorus]
G|------7----|--------------|------7----|--------------|
D|----7----7-|-----7-7------|----7----7-|-----7-7------|
A|5----------|---------0-4--|5----------|---------0-4-/|
E|-----------|-5-----------5|-----------|-5------------|

G|------9-----|-------------|----------------|----------------|
D|----9----9-\|-------------|----------------|----------------|
A|7-----------|5-----3---5--|7---------------|-5--------------|
E|------------|----5---5---5|----------------|----------------|

[Outro]
G|----------------|--------------|----------------|---------------|
D|---------7-7----|--------------|---------7-7----|------7-9-7----|
A|-0-0-0-7-----7-7|9-9-9-7-9-7---|-0-0-0-7-----7-7|9-9-9-------9-7|
E|----------------|------------9-|----------------|---------------|

G|---------------|---------------|---------------|---------------|
D|--------7-7----|---------------|---------------|---------------|
A|0-0-0-7-----7-7|9-9-9-7-9-7----|0-0-0-0-0-0-0-7|9-9-9-9-9-9-9-9|
E|---------------|------------9-7|---------------|---------------|

G|---------------|---------------|----------------|-------------|
D|---------------|---------------|--------7-7-----|----7-9-11--\|
A|0-0-0-0-0-0-0-0|9-9-9-7-9-7-9-7|0-0-0-0-----7-9-|-9-----------|
E|---------------|---------------|----------------|-------------|

G|6-6-6-6-6-6-6--|---------------|---------------|------------------|
D|--------------9|7-7-7-7-7-6-7-6|---------------|------------------|
A|---------------|---------------|0-0-0-0-0-0-0-7|9-9-9-7-9-7-----0-|
E|---------------|---------------|---------------|------------9-7---|



*****************************

| / slide up
| \ slide down
| ( ) fast

*****************************
Suggest correction
Give kudos to tab author, rate the tab!
1 2 3 4 5
comments
print report bad tab
guest
You may want to rate the tab now too:
select rating
Wanna post a correction for this tab? Suggest correction