Oops, an error
Loading. Please wait.

Middleway Tab

419 views 1 this week
no commentswrite comment
1 2 3 4 5
please rate
add to favorites
launch autoscroll
font size
0
reset
how to read this tab
guitar tuner
Autoscroll
slow
fast
+/-
esc
set tempo
stop
Help us to improve Ultimate-Guitar.com Take our survey!
×
Contributor
Difficulty
Capo
DafHob 58
novice
6th fret
Alma Desnuda's homepage: http://www.4nakedsouls.com/

This is my first tab/chords so theres plenty of room for mistakes. Any troubles email 
me: DafHob@Gmail.com

Capo 6th Fret.


Intro Riff:-

E||-0h2h3-2-0-------------0---------------0---------------0-----------------|
B||-----------3-1-0-1-----1---------------1---------------1-----------------|
G||-------------------0-----------0---0-----------0---0-----------0---------|
D||---------------------2-----0h2-------2-----0h2-------2-----0h2-----------|
A||-----------------3-------3-------3-------3-------3-------3-------3-------|
E||-------------------------------------------------------------------------|

E||-0h2h3-2-0-------------3---------------3-----|3-2-0-0h2------------------|
B||-----------3-1-0-------0---------------0-0---|3-----3--------------------|
G||-------------------0-----------0---0-----0---|2--------------------------|
D||---------------------0---------------0-------|---------------------------|
A||---------------------------0h2---------------|---------------------------|
E||-----------------3-------3-------3-----------|---------------------------|

E||-0h2h3-2-0-------------3---------------3---------------3-----------------|
B||-----------3-1-0-------0---------------0---------------0-----------------|
G||-------------------0-----------0---0-----------0---0-----------0---0-----|
D||---------------------0---------------0---------------0-------------------|
A||---------------------------0h2-------------0h2-------------0h2-------0h2-|
E||-----------------3-------3-------3-------3-------3-------3-------3-------|

E||---------------------3-------------------------------3-------------------|
B||---------------------0---------------1h0-------------0-------------------|
G||-0-----0---------0-----------0---0---0---0---0---0-----------0-----------|
D||---0h2---0h2-0-----0---------------0-------0-------0---------------------|
A||-------------------------0h2-----------------------------0h2-------0-2---|
E||---------------3-------3-------3---------------3-------3-------3-3-------|

(Straight in to chords)

C
If there were no nickels and dimes
G
No sense of urgency no-o time
Eminor                                   D
We could take a moment to pause and look inside
C
Instead we got all these bills to pay
G
Competition rampant in the rat race
Eminor                                   D
We forget that we're not 2 but 1 and the same
        C                                G
So sing…nah nah nah nah nah nah nah nah, nah nah nah nah nah nah nah nah
Eminor                      D
Nah nah nah nah nah I won't forget

C
Businessmen in their suits and ties
G
Crunching out numbers trying to strategize
Eminor                                             D
I wonder if they've ever wondered beneath a starry sky
C
Opinionated people spitting poison darts
G
Disconnected from the essence of their hearts
Eminor                                             D
The wisdom of the sages brings light to where it's dark

C          G             Eminor           D
I walk the middleway the path between two roads
C              G          Eminor          D
I won't buy no money if I have to sell my soul

C                                G
Nah nah nah nah nah nah nah nah, nah nah nah nah nah nah nah nah
C                               D
Nah nah nah nah nah nah nah nah nah

C       G                 Eminor            D
The ink inside my pen is made from all our tears
C         G                Eminor         D
We may be young but we can see beyond our years
C               G              Eminor           D
Your truths are growing in the dirt of your backyard
C          G               Eminor              D
To harvest their fruit you must patiently work hard
C                 G                   Eminor
And when I fall I fall so very hard I crash into the mountains like an
D
airplane
C                G                  Eminor                           D
And when I fly I fly so very high I dash above the mountains like an airplane
comments
We did not receive enough feedback on this tab! Please rate:
print report bad tab
1 2 3 4 5
I want to post or [tab]
guest
You may want to rate the tab now too:
select rating
Please do not post tabs as comments. Select "correction" instead!