Oops, an error
Loading. Please wait.

Toro Y Pampa Tab

9,673 views 6 this week
no commentswrite comment
1 2 3 4 5
please rate
add to favorites
launch autoscroll
font size
0
reset
how to read this tab
guitar tuner
Tab Pro tools
  • play this tab
  • loop segment
  • change instrument
  • show fretboard
  • metronome
×
Best way to learn
"Toro Y Pampa"
Autoscroll
slow
fast
+/-
esc
set tempo
stop
Contributor
e|-------------------------------------------------------|
B|-------------------------------------------------------|
G|----------9--8--6--8h9---9----------8-9-/11--9-8h9h8---|
D|--------9--------------9----------9------------------9-|
A|------7--------------------------9---------------------|
E|----0--------------------------7-----------------------|

e|----------------------------------------------------|
B|----------------------------------------------------|
G|----------9--8--6--8h9---9----------8-9-/-11--------|
D|--------9--------------9----------7------9----------|
A|------7-------------------------9-------------------|
E|----0-------------------------7---------------------|


e|-----------------------------------------------------------------|
B|-------11/12--14------------------11/12--14----------------------|
G|----9----------------11/13------9-------------11b13-11h9h11------|
D|--9---------------------------9-----------------------------11---|
A|-----------------------------------------------------------------|
E|-----------------------------------------------------------------|

e|------------------------------------------11/12-----------------|
B|------11/12--14---------------11/12--14---------16-14-12--14----|
G|----9-----------11/13-------9-----------------------------------|
D|--9-----------------------9-------------------------------------|
A|----------------------------------------------------------------|
E|----------------------------------------------------------------|

E5              A5 E5
Con Toro y pampa
                     E5* E5
armé la impronta,
         A5 E5                 C#5
iluminando así el costado imaginario
          B5
del encuentro.


E5              A5 E5
Vengo rockeando
                     E5* E5
desde hace tiempo,
         A5 E5                 C#5
soñando siempre una canción para animarte
          B5
y darte aliento.
B5         C#5
La melodía quiere llevar
B5                     C#5
lo bueno y lindo de estar contento.

e|------------------------------------------11/12--------------|----|
B|------11/12--14---------------11/12--14---------16-14-12--14-|-12-|
G|----9-----------11/13-------9--------------------------------|----|
D|--9-----------------------9----------------------------------|----|
A|-------------------------------------------------------------|----|
E|-------------------------------------------------------------|----|


E5              A5 E5
Un buen descanso
                     E5* E5
un plato e´sopa
         A5 E5                 C#5
y el abrazo fraternal de un amigo leal a voz
          B5
te están faltando.


E5              A5 E5
Para que de un salto
                     E5* E5
dejes la falopa
         A5 E5                 C#5
y el emputecido berretín de andar limándote
          B5
en la caja negra.

B5         C#5
Día domingo lejos de la ciudad
B5                     C#5
bajo el sol compartiendo entre amigos
D5           A5          B5
carne azada, pan, agua y vino,

Toro y pampa es.

Solo:

e|-----------------------------------------------------------|
B|---------9-10--12--------------------9-10--12--12b14-12b14-|
G|-------9------------11b13----------9-----------------------|
D|-----9---------------------------9-------------------------|
A|---7---------------------------7---------------------------|
E|-----------------------------------------------------------|


e|----------12-14-16---------|
B|------9-12---------16b17---|
G|----9----------------------|
D|---------------------------|
A|---------------------------|
E|---------------------------|

e|----------16-17-19b21-19b21--17-19-21-21b22-21-19-17--19-21-19-|
B|----17-19------------------------------------------------------|
G|-16------------------------------------------------------------|
D|---------------------------------------------------------------|
A|---------------------------------------------------------------|
E|---------------------------------------------------------------|


e|--17-16-14-17-16-14-12-16-14-12-11--12-12--|
B|-------------------------------------------|
G|-------------------------------------------|
D|-------------------------------------------|
A|-------------------------------------------|
E|-------------------------------------------|

E5              A5 E5
Hijos del brazo
                     E5* E5
nunca torcido
         A5 E5                 C#5
de donde nace esa intención tan tonta de andar
           B5
tele-vareando.

E5              A5 E5
Pibin del barrio
                     E5* E5
donde nacido
         A5 E5                 C#5
Mira a tu lado, todos, todos nos fuimos ya
           B5
vos no te quedes.

B5            C#5
Día domingo lejos de la ciudad
B5                C#5
bajo el sol compartiendo entre amigos
D5           A5          B5
carne azada, pan, agua y vino,
Toro y pampa es.

e|-----------------------------------------------------------------|
B|-------11/12--14------------------11/12--14----------------------|
G|----9----------------11/13------9-------------11b13-11h9h11------|
D|--9---------------------------9-----------------------------11---|
A|-----------------------------------------------------------------|
E|-----------------------------------------------------------------|

e|------------------------------------------11/12-----------------|
B|------11/12--14---------------11/12--14---------16-14-12--14----|
G|----9-----------11/13-------9-----------------------------------|
D|--9-----------------------9-------------------------------------|
A|----------------------------------------------------------------|
E|----------------------------------------------------------------|

e|-----------------------------------------------------------------|
B|-------11/12--14------------------11/12--14----------------------|
G|----9------------11b13-11b13----9-------------11b13-11h9h11------|
D|--9---------------------------9-----------------------------11---|
A|-----------------------------------------------------------------|
E|-----------------------------------------------------------------|

e|------------------------------------------11/12-|
B|------11/12--14---------------11/12--14---------|
G|----9-----------11/13-------9-------------------|
D|--9-----------------------9---------------------|
A|------------------------------------------------|
E|------------------------------------------------|

e|------------------------|
B|16-14-12-14--12---------|
G|---------------13-11/13-|
D|------------------------|
A|------------------------|
E|------------------------|

//////////////////////////////////////////////////

   E5*
e|-----|
B|-----|
G|--9--|
D|--9--|
A|--7--|
E|-----|
comments
We did not receive enough feedback on this tab! Please rate:
print report bad tab
1 2 3 4 5
I want to post or [tab]
guest
You may want to rate the tab now too:
select rating
Please do not post tabs as comments. Select "correction" instead!