Oops, an error
Loading. Please wait.

Ana No Duerme Tab

360 views 3 this week
no commentswrite comment
1 2 3 4 5
please rate
add to favorites
launch autoscroll
font size
0
reset
how to read this tab
guitar tuner
Tab Pro tools
  • play this tab
  • loop segment
  • change instrument
  • show fretboard
  • metronome
Autoscroll
slow
fast
+/-
esc
set tempo
stop
Contributor
Difficulty
intermediate
B|-----15------12------10---------------------|
G|-11------11------11-----------7--9-9h11-----|
D|------------------------7--9----------------|

Ahora vamos con el primero y segundo verso

riff 1
E|--------------|
B|------b12-----|
G|--------------|
D|--9-----------|
A|--------------|
E|--------------|
riff 2
E|--------------|
B|--------------|
G|--4-4--4------|
D|---------6----|
A|--------------|
E|--------------|
  B
Ana no duerme...  riff 1
Espera el día...  riff 1
Sola en su cuarto... riff 1
        B  E C#m
Ana quiere jugar ... riff 2
 C#m
Sobre la alfombra...riff 2
Toca su sombra... riff 2
Cuenta las luces...riff 2
    C#m   A  B   E
Mira la gran ciudad
 E
Ana no duerme
 C             C B A
juega con nada
 A
tal vez mañana despierte
 Em             C
sobre el mar el mar   riff 3  (arranca desde que dice
 Em             G                "sobre" y sigue)
sobre el mar el mar

riff 3
E|---------------------------------------------------|
B|--17-17-17----------------------------------15-17--|
G|-----------16-16-16---14-14-----------14-16--------|
D|----------------------------17-14-17---------------|
A|---------------------------------------------------|
E|---------------------------------------------------|

E|-15-17h19-17-15----------------------------------|
B|----------------17-15----------------------------|
G|---------------------16-14-16-----14----------14-|
D|-------------------------------------17-14-17----|
A|-------------------------------------------------|
E|-------------------------------------------------|

  B
Ana de noche...   riff 1
Hoy es un hada... riff 1
Canta palabras... riff 1
            B  E    C#m
Canta y se torna en luz... riff2
 C#m
Sobre la alfombra...riff 2
Toca su sombra... riff 2
Cuenta las luces...riff 2
    C#m   A  B   E
Mira la gran ciudad
 E
Ana no duerme
 C             C B A (seguido)
juega con nada
 A
tal vez mañana despierte
 Em             C
sobre el mar el mar riff 4 (siempre arranca desde el "sobre")
 Em             G
sobre el mar el maar...

riff 4
E|--17---15-------------------15-17h19-17-----------------------|
B|-----------17---------15-17-------------17-15-----------------|
G|----------------14-16-------------------------16-14-16--------|
D|--------------------------------------------------------17-14-|
A|--------------------------------------------------------------|
E|--------------------------------------------------------------|
sobre el mar...el..maaar
                  A|-----------------------------------------------------|
                  E|---7-7-5-5-4-0-4-0-5-0-7-7-5-5-4-0-4-0-5-6-7-7-5-5-4-|

Ahora junto con la bateria
E|-------15~-------17~-|
B|---------------------|
G|--16~-------14~------|
D|---------------------|
A|---------------------|
E|---------------------|
  B
Ana no duerme
Espera el día.     E|---------|
Sola en su cuarto  B|---12~---|(estirando, la toca al final del
                   G|---------|    "duerme" y de cada frase)
         B  E C#m
 Ana quiere jugar
 C#m
Sobre la alfombra...riff 2
Toca su sombra... riff 2
Cuenta las luces...riff 2
     C#m   A  B   E
Mira la gran ciudad
 E
Ana no duerme
 C             C B A (seguido)
juega con nada
 A
tal vez mañana despierte
 Em             C
sobre el mar el mar riff 5 (siempre arranca desde el "sobre")
 Em             G
sobre el mar el maar...

riff 5

|--17-15--------------------------15-17h19-17-15-------------------|
|--------17-15h17-----------15-17----------------17-15-------15-17-|
|---------------------14-16----------------------------16-14-------|
|------------------------------------------------------------------|
comments
We did not receive enough feedback on this tab! Please rate:
print report bad tab
1 2 3 4 5
I want to post or [tab]
guest
You may want to rate the tab now too:
select rating
Please do not post tabs as comments. Select "correction" instead!