Oops, an error
Loading. Please wait.

Pusong Bato tab

version 1
version 1

Whole song

by Alon
58,491 views 15 this week
2 commentsread comments
1 2 3 4 5
2 more votes to show rating
add to favorites
×
Save as Personal and add changes to this tab that will be seen only by you. Learn more ›
×
You can save this tab as Personal to edit and correct it or add notes. All changes will be seen only by you. Learn more »
launch autoscroll
font size
0
reset
how to read this tab
guitar tuner
edit
Autoscroll
slow
fast
+/-
esc
set tempo
stop
Author
Unregistered
Band/Artist: Alon
Song: Pusong Bato


Intro:

   G           A          G            A               
e|-----3/--9~---------5~-------3/--9~---------0-----2-----3--|
B|-----3/--9-9-----2/-5-5------3/--9-9----2/3---2/3---2/3----|
G|---0-----------2-2/--------0------------2/3---2/3---2/3----|
D|-----------------------------------------------------------|
A|-------------0-----------------------0---------------------|
E|-3----------------------3----------------------------------|



Verse1:
e|-----------2-----------------3------------------|
B|-------3-------3---------3-------3--------------|
G|-----2-------2---------0-------0----------------|
D|---0-----0-0-----0------------------------------|
A|------------------------------------------------|
E|--------------------3------3-3-----3------------|
    D              G
Nang ika’y ibigin ko

e|------------0-----------------2-----------------|
B|--------2-------2---------3-------3-------------|
G|------2-------2---------2-------2---------------| 
D|----------------------0-----0-0-----0-----------|
A|----0-----0-0-----0-----------------------------|
E|------------------------------------------------|
      A              D
Mundo ko’y biglang nagbago

e|-----------2-----------------3------------------|
B|-------3-------3---------3-------3--------------|
G|-----2-------2---------0-------0----------------|
D|---0-----0-0-----0------------------------------|
A|------------------------------------------------|
E|--------------------3------3-3-----3------------|
    D              G
Akala ko ika’y langit

e|------------0-----------------2-----------------|
B|--------2-------2---------3-------3-------------|
G|------2-------2---------2-------2---------------| 
D|----------------------0-----0-0-----0-----------|
A|----0-----0-0-----0-----------------------------|
E|------------------------------------------------|
      A              D
Yun pala’y sakit ng ulo


Verse2:
e|-----------2-----------------3------------------|
B|-------3-------3---------3-------3--------------|
G|-----2-------2---------0-------0----------------|
D|---0-----0-0-----0------------------------------|
A|------------------------------------------------|
E|--------------------3------3-3-----3------------|
    D             G
Sabi mo  noon  sakin
e|-------------0-----------------2----------------|
B|---------2-------2---------3-------3------------|
G|-------2-------2---------2-------2--------------| 
D|-----------------------0-----0-0-----0----------|
A|-----0-----0-0-----0----------------------------|
E|------------------------------------------------|
      A              D
Kailan ma’y  di  magbabago
e|-----------2-----------------3------------------|
B|-------3-------3---------3-------3--------------|
G|-----2-------2---------0-------0----------------|
D|---0-----0-0-----0------------------------------|
A|------------------------------------------------|
E|--------------------3------3-3-----3------------|
    D              G
Naniwala  naman  sayo
e|-------------0-----------------2------------------0-------|
B|---------2-------2---------3-------3---------2--------2---|
G|-------2-------2---------2-------2---------2--------2-----| 
D|-----------------------0-----0-0-----0--------------------|
A|-----0-----0-0-----0---------------------0-----0--0-----0-|
E|----------------------------------------------------------|
      A               D                A
Ba’t  ngayo’y  iniwan  mo

Chorus:
e|------2----------2-------------3----------3-----|
B|------3----------3-------------3----------3-----|
G|---2--2--2----2--2----------0--0--0----0--0-----| 
D|-0-------0--0------0----------------------------|
A|------------------------------------------------|
E|--------------------------3-------3--3------3---|
  D                      G
  Di mo alam dahil sayo ako’y di makakain

e|------0----------0----------2----------2---|
B|------2----------2----------3----------3---|
G|---2--2--2----2--2-------2--2--2----2--2---| 
D|-----------------------0-------0--0------0-|
A|-0-------0--0------0-----------------------|
E|-------------------------------------------|
  A                      D
  Di rin makatulog buhat ng iyong lukohin

e|------2----------2-------------3----------3-----|
B|------3----------3-------------3----------3-----|
G|---2--2--2----2--2----------0--0--0----0--0-----| 
D|-0-------0--0------0----------------------------|
A|------------------------------------------------|
E|--------------------------3-------3--3------3---|
  D                      G
  Kung ako’y muling iibig sanay di maging katulad mo

e|------0----------0-----------2----------2---------0----------0-----|
B|------2----------2-----------3----------3---------2----------2-----|
G|---2--2--2----2--2--------2--2--2----2--2------2--2--2----2--2-----| 
D|------------------------0-------0--0------0------------------------|
A|-0-------0--0------0-------------------------0-------0--0-------0--|
E|-------------------------------------------------------------------|
   A                      D                    A
  Tulad mo na may pusong bato


Verse3:
     D                G
Kahit sa’n ka man ngayon
       A           D
Dinggin mo itong awitin
      D                 G
Baka sakaling ika’y magising
      A               D
Ang matigas mong damdamin


Chorus:
D                      G
Di mo alam dahil sayo ako’y di makakain
A                      D
Di rin makatulog buhat ng iyong lukohin
D                      G
Kung ako’y muling iibig sanay di maging katulad mo
A                       D      A
Tulad mo na may pusong bato

adlib: D-G-A-D-;

guitar solo: 
                                              
e|--------------------------------------------------------------|
B|-----7-------10--12-10-8---------------------------------8-7--|
G|-4/7----7/11-------------4----6h7-6--------------------7------|
D|------------------------------------9-7-5-7--7h9-7h9-7--------|
A|--------------------------------------------------------------|
E|--------------------------------------------------------------|

e|--------------------------------5------7----9------10------11-|
B|-----7-------10--12-10-8--------------------------------------|
G|-4/7----7/11-------------4--4/6---6/9----9----9/11----9/12----|
D|--------------------------------------------------------------|
A|--------------------------------------------------------------|
E|--------------------------------------------------------------|



Chorus:
D                      G
Di mo alam dahil sayo ako’y di makakain
A                      D
Di rin makatulog buhat ng iyong lukohin
D                      G
Kung ako’y muling iibig sanay di maging katulad mo
A                       D      
Tulad mo na may pusong bato

D                      G
Di mo alam dahil sayo ako’y di makakain
A                      D
Di rin makatulog buhat ng iyong lukohin
D                      G
Kung ako’y muling iibig sanay di maging katulad mo
A                       D    
Tulad mo na may pusong bato
A                       D   
Tulad mo na may pusong bato
A                       D  
Tulad mo na may pusong bato...


Chords used:
G 320033
A x02220
D xx0232


            
            
Suggest correction
Creating personal tab
Creating personal tab
You can edit any tab online and save it as your Personal.

You can edit, replace or remove any tab part or add personal notes – all changes will be seen only by you.

Personal tabs can be accessed anytime from any device, even offline.
Learn more »
Give kudos to tab author, rate the tab!
1 2 3 4 5
comments
print report bad tab
2 comments total.
0 reply
njpre 10 Apr 02, 2013 08:32 AM

oks na din XD

0 reply
Lester Talisic 55 Apr 14, 2013 02:46 PM

haha.. gawa2x ko lang yan, ewan ko ba kung tama...

guest
Wanna post a correction for this tab? Suggest correction